Nanairo no Sora wo (Aria the OVA ~Arietta~) Guitar Tab

Submitted: Jul 17, 2014 by tomorning (Last updated: Jul 19, 2014)

5
Average: 5 (4 votes)
Download | Listen
Game: Aria the OVA ~Arietta~
Composer(s): Choro Club, Takeshi Senoo, Mina Kubota
Style: Arrangement, Fingerstyle, Natural harmonics

This song is also called Seven-Colored Sky

AutoScroll: Slow | Medium | Fast
                               Nana-iro no sora wo -OVA size-
                                  (七色の空を -OVA size-)
                            ~ from anime "ARIA The OVA -ARIETTA" ~

Music by SONOROUS / Choro Club
allanged by to*morning


Standard tuning

 3/4
Tempo = Larghetto (62)

Capo = 1

E|--9------|-<7>---------|---------|-----0---5--|
B|-10------|------<7>----|-2-------|---2-----7--|
G|-11------|-<7>---------|-4----2--|-4-------9--|
D|-12------|-------0-----|-4-------|-0----------|
A|---------|-------------|-5-------|------------|
E|---------|-------------|---------|------------|


|-----5--|-5--7------|-9---------|-----||
|--------|-5------5--|---<7>-----|-----||
|--------|------7----|---<7>-----|-----||
|-----7--|-0---------|---<7>-----|-----||
|--------|-----------|-----------|-----||
|--------|-----------|-----------|-----||


|-2--0-2---|-------2-|---5-----|---------5--|
|----2-----|---------|-2-------|-------2----|
|----------|-2-------|---------|-2----------|
|----0-----|---------|-4-------|-----4------|
|----------|---------|-5-------|------------|
|----------|---------|---------|------------|


|-5-3-----|--------2h3--|-2-2-----|-------0---|
|---------|-----0-------|---------|---0-------|
|-2-------|---2---------|---2-----|-----2-----|
|-0-------|-0-----------|---4-----|-4---------|
|---------|-------------|---5-----|-----------|
|-3-------|-------------|---------|-----------|


|-2-0-2-----|---0-----2-|----4h5-----|-------0-5-|
|-----------|---0---0---|-2------0---|-0-----0---|
|---4-----4-|---2---2---|--------2---|-2-----2---|
|---0-------|-----------|-0----------|-----------|
|-----------|-0---------|------------|-----0-----|
|-----------|-----------|------------|-----------|


|-5-3------|----------3--s->2------|-------2-5--||
|-0----0---|-0------0----|---------|--2---------||
|-2----2---|-2------2----|------2--|--2---------||
|----------|----0--------|---------|--4---------||
|----------|------0------|--5------|-----0------||
|-3--------|-------------|---------|------------||


|-5---3-----2-|---------2-5-|-5---3-----2-|---2-------5-|
|-------0-----|-3-----3-----|-----0-----0-|-3-------2---|
|-----0-------|-----2-------|---2-----0---|-------2-----|
|---0---------|---4---------|-------------|-----4-------|
|-------------|-------------|-------0-----|---5---------|
|-0-----------|-2-----------|-3-----------|-------------|


|-5---3-----5-|-7-2-5-----2-|-2-----5---|-0-------------9-5-||
|---------0---|---------2---|-----0-----|---------2---0-----||
|-----0h2-----|-------2-----|-----------|-----0---0---0-----||
|---0---------|-----2-------|---4-------|---2---2---2-------||
|-------------|-------------|-----------|-0-----------0-----||
|-0-----------|---2---------|-3---------|-------------------||


|-5-------0-----2S5-|-7-------------7-5-|
|-----0-----0---0---|---------0-----0---|
|---2---2-----------|-----0-----0---0---|
|-0-----------0-----|---0---0-----0-----|
|-------------------|-------------------|
|-------------------|-3-----------------|


|-5-------0-----2-0-|-2-------------9-5-|
|-----0-----0-----0-|---------0-----5---|
|---2---2-----------|-----0-----0---6---|
|-0-----------0-----|---0---0-----------|
|-------------------|-------------0-----|
|-------------------|-3-----------------|


|-5-------0-----2S5-|-7-------------7-5-|
|-----0-----0---0---|---------0-----0---|
|---2---2-----------|-----0-----0---0---|
|-0-----------0-----|---0---0-----0-----|
|-------------------|-------------------|
|-------------------|-3-----------------|


|-5-------0-----5-3-|-2-------------2-0-|
|-----0-----0---2---|---------0-----3---|
|---2---2-------2---|-----0-----0-------|
|-0-----------0-----|---0---0-----------|
|-------------------|-------------0-----|
|-------------------|-3-----------------|


|-----0-2-5---------|---------2-5-|-5-------------5S9-|-5-------5-2-|
|-3-----------------|-------0-----|---------2---------|-----3-------|
|-----0-------2---2-|-----0-------|-----2-----2-------|---2---------|
|---0-------5---5---|---0---------|---2---2-----2-----|-------------|
|-------------------|-------------|-------------------|-2-----0-----|
|-0-----------------|-0-----------|-2-----------------|-------------|


|---------0-2-|-0-------------|-------0-----|-------------|
|-3-----------|-----------2-3-|-3-------0---|-------3-----|
|-------0-----|-------2-------|-----0-----0-|-----0---0---|
|-----0-------|---0h2---------|---0---------|---2-------2-|
|---2---------|-0-------------|-------------|-------------|
|-0-----------|---------------|-3-----------|-3-----------|


|-------0---5-|----------|---------|------*|
|-----0---0---|-<7>------|---------|------*|
|---2---------|-<7>------|---------|------*|
|-0-----------|-<7>------|-<12>----|------*|
|-------------|----------|---------|------*|
|-------------|----------|---------|------*| fine.

Login or Register to remove this ad.

6 comments on Nanairo no Sora wo

Brilliant tab as usual. Keep

Brilliant tab as usual. Keep it.

Awesome stuff!

5

Awesome stuff!

Just played through this

5

Just played through this again, I f***ing love this song.

I like to add this note at

5

I like to add this note at the very end

                            NH  NH
|-------0---5-|----------|----------|------*|
|-----0---0---|-<7>------|----------|------*|
|---2---------|-<7>------|----------|------*|
|-0-----------|-<7>------|-<12>-----|------*|
|-------------|----------|------<9>-|------*|
|-------------|----------|----------|------*| fine.

Yes that's the natural harmonic at fret 9, we don't use it all that often, but man it sounds good ringing with the <12>

By the way, one of the

5

By the way, one of the coolest songs I've ever heard, this is the original of this tab I think

https://youtu.be/4Df3JzEbTU0

Even after 4 years I keep

5

Even after 4 years I keep coming back to this. It's a very relaxing song to play and listen to.