Ads

Aria to Osanpo (Aria the Origination) Guitar Tab

Submitted: May 06, 2014 by tomorning

5
Average: 5 (5 votes)
Download | Listen
Game: Aria the Origination
Composer(s): Choro Club, Takeshi Senoo, Mina Kubota
Style: Arrangement, Fingerstyle

AutoScroll: Slow | Medium | Fast
                                   Aria to Osanpo
                                  (アリアとお散歩)
                          ~ from anime "ARIA The ORIGINATION" ~

Music by Shigeharu Sasakgo(笹子重治),Choro Club
arranged by to*morning


Standard tuning (E,A,D,G,B,E)

  Q=116(8=s8)

 3/4

E|-------5-2---|---------|-------7-4---|---------|
B|-3-2-3-----3-|-2--0----|-5-4-5-----5-|-3--2----|
G|-----2---2---|-1--1----|-----4---4---|-3--3----|
D|---4---------|-2-------|---6---------|-2--2----|
A|-2-----------|---------|-4-----------|---------|
E|-------------|-0-------|-------------|-2-------|


|-------5-2---|---------0--|-------------|-0-----0------|
|-3-2-3-----3-|-2---0------|-2---3---4---|--------------|
|-----2---2---|-1---1------|---2---2---2-|-----2--------|
|---4---------|---2---2----|-------------|---2------/4--|
|-2-----------|------------|-0---2---3---|-4------------|
|-------------|-0----------|-------------|--------------|

                                                      |-3-|
|-------8-5---|-0----------|-3--------------|---------------|
|-6-5-6-----6-|-----3--2-3-|-----3-3-0------|-----1---0-1-3-|
|-----5-------|-----0------|-----2------0---|-2-----2-------|
|---7---------|---3--------|---2------------|---2-----------|
|-5-----------|------------|-3-------3------|---------------|
|-------------|-3----------|-----------3-2--|-1-------------|
                                     |-3-|
  

|-0-------0--|-----4--3--|-2-------2--|-0-------||
|---------2--|-4---2--4--|-------3----|-1-------||
|-------2----|---2-------|-----2------|-1-------||
|-4---2------|-----------|---4--------|-0--2----||
|---4--------|-2---------|-2----------|---------||
|------------|-----------|------------|-0-------||


|-------5-2---|-------------|-------7-4---|-------2--|
|-3-2-3-----3-|-2--0--------|-5-4-5-----5-|-3--2-----|
|-----2---2---|-1--1--------|-----4---4---|-3--3-----|
|---4---------|-2-----2-1-0-|---6---------|-2--2-----|
|-2-----------|-------------|-4-----------|----------|
|-------------|-0-----------|-------------|-2--------|


|-------5-2---|------------|-0-----------|-----------|
|-3-2-3-----3-|-2---0----0-|---------0---|-2--3------|
|-----2---2---|-1---1--3---|-------0-----|-------2---|
|---4---------|---2--------|-----4-------|-2--4------|
|-2-----------|------------|---2---------|-0--2--4---|
|-------------|-0----------|-0---------3-|-----------|

                                    |-3-|
|-5-------5--|-3-------5---|-0----3-------|-------0--|
|-------7----|-------3---4-|----3---3-0---|----1-----|
|-----7------|-----4-------|----2---0---0-|-2--2-----|
|---7--------|---3---------|----2---2-----|----3-----|
|-5----------|-------------|-3------------|----------|
|------------|-3-----------|--------------|-1--------|

          |-3-|
|-------5-2-----|--------0--|-----------|----2----||
|-3-2-3-----3-0-|-2---------|-----3--2--|-2-------||
|-----2---2-----|-1---1-----|-2---------|-3-------||
|---4-----------|-----0-----|---2-4--2--|-2-------||
|-2-------------|---2-------|-0---------|---------||
|---------------|-0---------|-----------|-2-------||


||--------5-2---|-------------|-------7-4---|-------2--|
||o-3-2-3-----3-|-2--0--------|-5-4-5-----5-|-3--2-----|
||------2---2---|-1--1--------|-----4---4---|-3--3-----|
||----4---------|-2-----2-1-0-|---6---------|-2--2-----|
||o-2-----------|-------------|-4-----------|----------|
||--------------|-0-----------|-------------|-2--------|


  1.
|-------5-2---|---------0--|-------------|-0-----0------|
|-3-2-3-----3-|-2---0------|-2---3---4---|--------------|
|-----2---2---|-1---1------|---2---2---2-|-----2--------|
|---4---------|---2---2----|-------------|---2------/4--|
|-2-----------|------------|-0---2---3---|-4------------|
|-------------|-0----------|-------------|--------------|

                                                     |-3-|
|-------8-5---|--0-----------|-3-----------|---------------|
|-6-5-6-----6-|-(0)---3--2-3-|-----3-3-0---|-----1---0-1-3-|
|-----5-------|-------0------|-----2-----0-|-2-----2-------|
|---7---------|-----3--------|---2-----2---|---2-----------|
|-5-----------|--------------|-3-----------|---------------|
|-------------|--3-----------|---------3-2-|-1-------------|


|-0-------0--|-----4--3--|-2-------2--|-0--------||
|---------2--|-4---2--4--|-------3----|-1-------o||
|-------2----|---2-------|-----2------|-1--------||
|-4---2------|-----------|---4--------|-0--2-----||
|---4--------|-2---------|-2----------|---------o||
|------------|-----------|------------|-0--------||


  2.
|-------5-2---|------------|-0-----------|-----------|
|-3-2-3-----3-|-2---0------|---------0---|-2--3------|
|-----2---2---|-1---1--3-4-|-------0-----|-------2---|
|---4---------|---2--------|-----4-------|-2--4------|
|-2-----------|------------|---2---------|-0--2--4---|
|-------------|-0----------|-0---------3-|-----------|

                                    |-3-|
|-5-------5--|-3-------5---|-0----3-------|-------0--|
|-------7----|-------3---4-|----3---3-0---|----1-----|
|-----7------|-----4-------|----2---0---0-|-2--2-----|
|---7--------|---3---------|----2---2-----|----3-----|
|-5----------|-------------|-3------------|----------|
|------------|-3-----------|--------------|-1--------|

          |-3-|
|-------5-2-----|--------0--|-5-----------|-3-----------|
|-3-2-3-----3-0-|-2---------|-----0---0---|-----3---3---|
|-----2---2-----|-1---1-----|-----6---6---|-----4---4---|
|---4-----------|-----0-----|---7---7-----|-----5---5---|
|-2-------------|---2-------|-0-----------|---5---5-----|
|---------------|-0---------|-----------x-|-3---------x-|


|-1----0--|-5------*|
|-1----3--|-2------*|
|-2----3--|-2------*|
|---------|--------*|
|------1--|-0------*|
|-1-------|--------*| fine.
Login or Register to remove this ad.