Ads

Second Season ~Deai~ (Aria the Natural) Guitar Tab

Submitted: Jun 23, 2016 by tomorning

5
Average: 5 (4 votes)
Download | Listen
Game: Aria the Natural
Composer(s): Choro Club, Takeshi Senoo, Mina Kubota
Style: Arrangement, Artificial harmonics, Fingerstyle

AutoScroll: Slow | Medium | Fast
                                  Second Season - deai -
                               (Second Season ~出会い~)
                            ~ from anime "ARIA The NATURAL" ~

Music by Takeshi Senoo (妹尾 武) / Eri Kawai (河井 英里)
arranged by to*morning

 4/4
                                


Nylon Guitar
     Q    Q       H        E  E   E  E     Q    Q    Q     Q        E  E  E  E  E  E  E  E   
E||------------|--0-----------2s--4--0--|------------------------|--2--------------4--5--2--|
B||-------0----|------------------------|--2---------------2-----|--------------------------|
G||------------|--1---------------------|-------2----2----(1)----|-----------2--------------|
D||------------|--2---------------------|--2---------3-----------|--------4-----------------|
A||------------|------------------------|--0---------------------|-----4--------------------|
E||------------|------------------------|------------4-----------|--2-----------------------|


  H        Q    Q       E  E  E  E  E  E  E  E     E  E  E  E  H           E  E  E  E  E  E  E  E   
--0------------------|--7--------------5--4--2--|--2-----------4--------|--------0--4--4--2--0-----|
-----------4----0----|--------------------------|-----5--4--5--2--------|-----0--------4--------4--|
--4------------------|-----------4--------------|--------2--------------|--------------2-----------|
--4------------------|--------6-----------------|-----2-----------------|--2-----------------------|
--2-------------0----|-----7--------------------|--0-----------1--------|--2-----------------------|
---------------------|--4-----------------------|-----------------------|--------------------------|


  E  E  E  E  Q    Q       E  E  E  E  E  E   E   E     E  E  E  E  E  E   Q      
--2-----------0---------|--0--------------2---4---0--|---------------------------|
-------------------0----|--------------0-------------|--2------------------2-----|
-----------2--1---------|-----------1---------4------|--------2-----2-----(1)----|
--------2---------------|--------2------------6------|-----2-----2-----3---------|
-----2------------------|-----2----------------------|--0------------------------|
--0---------------------|--0-----------------(4)-----|--------------4------------|


  E  E  E  E  E  E  E  E     E  E  E  E  Q    Q       E  E  Q    E  E  E  E   
--2--------------4--5--2--|--0--------0------------|--7-------------5--4-----|
--------------2-----------|--------------4----0----|-------------5--------7--|
-----------2--------------|--------2-----4---------|--------4----5-----------|
--------4-----------------|-----4--------4---------|--------6----------------|
-----4--------------------|--3-----------2----0----|-----7-------------------|
--2-----------------------|------------------------|--4----------------------|


  E  E  E  E  E  E  Q       E  E  E  E  E  E  E  E     E  E  E  E  Q    Q     
--2-----------4----------|--------0--4--4--2--------|--2-----------0---------|
-----5--4--5--------2----|-----0--------------5--4--|------------------------|
--------2-----------1----|--------1-----------2-----|-----------2--1---------|
-----2-----------2-------|-----2-----------4--------|--------2----------0----|
--0-----------1----------|--2-----------2-----------|-----2------------------|
-------------------------|--------------------------|--0---------------------|


  >                          >                          >                        
  E  E  E  E  E  E  E  E     E  E  E  E  E  E  E  E     E  E  E  E  E  E  E  E   
-----0--0--2--2--3--3--5--|--3-----------------------|-----------0--0--1--1--3--|
-----0--0--3--3-----3-----|--------3-----------3-----|-----3--3--3--3-----3-----|
-----0--0--0--0-----------|-----0-----0-----0-----0--|-----0--0--0--0-----------|
--------------------------|--------------------------|-----3--3-----------------|
--3-----------------------|--2-----------2-----------|--1-----------------1-----|
--------------------------|--------------------------|--------------------------|


  >                                                     >     >     >           
  E  E  E  E  E  E  E  E     E  E  E  E  E  E  E  E     E  E  E  E  Q    E  E   
--1-----------------------|--------------------------|--6-----3-------------1--|
--------1-----------1-----|-----------------4--4--6--|--4-----3-----4----4-----|
-----2-----2-----2-----2--|-----5--5--7--7--5--5-----|-----0-----0--0----------|
--------------------------|--------5-----5-----5-----|-------------------------|
--0-----------0-----------|--------------------------|--------2-----3----3--1--|
--------------------------|--4-----------------------|--3----------------------|


  E  E  E  E  E  E  E  E     E  E  E  E  E  E  Q       E  E  E  E  E  E   E   E   
--3--------3--3--2--3--7--|--5----------------------|--0--------------2---4---0--|
-----------3--2-----------|--------3-----------0----|--------------0-------------|
--------2-----------------|-----2-----2-----2-------|--1--------1---------4------|
-----2--------------------|--0-----------1----------|--2-----2------------6------|
--0-----------------------|-------------------------|-----2----------------------|
--------------------------|-------------------------|--------------------(4)-----|


  E  E  E  E  E  E   Q        E  E  E  E  E  E  E  E     E  E  E  E  Q    Q     
---------------------------|--2--------------4--5--2--|--0--------0------------|
--2------------------2-----|--------------2-----------|--------------4----0----|
--------2-----2-----(1)----|-----------2--------------|--------2-----4---------|
-----2-----2-----3---------|--------4-----------------|-----4--------4---------|
--0------------------------|-----4--------------------|--3-----------2----0----|
--------------4------------|--2-----------------------|------------------------|


  >                         >                                   >           >     >      
  E  E  Q    E  E  E  E     E  E  E  E   E   E  Q       Q       E  E  E  E  E  E  E  E   
--7-------------5--4-----|--2-----------12-----------|--8----|--------0--4--7--9--5--4--|
-------------5--------7--|-----5--4--5----------9----|-------|-----0--------7-----6-----|
--------4----5-----------|--------2---------10-------|-------|--------1-----------------|
--------6----------------|-----2---------8-----------|-------|-----2--------------------|
-----7-------------------|--0------------------------|-------|--2-----------5-----4-----|
--4----------------------|---------------------------|-------|--------------------------|


  >           >    >                                           AH     
  E  E  E  E  Q    Q       E  E  E  E  Q    Q       H          Q      
--7--5--------0---------|--0----------------0----|-----------<12>----||
-----------7-------4----|--------------0---------|-------------------||
--------6-----2----2----|-----------2------------|--1----------------||
--4---------------------|--------2---------------|--2----------------||
--------------3----2----|-----2------------------|-------------------||
------------------------|--0---------------------|-------------------|| fine...

Login or Register to remove this ad.

1 comment on Second Season ~Deai~

Loved it!! Favorited!

5

Loved it!! Favorited!