Ads

Rakuyou (Aria the Animation) Guitar Tab

Submitted: Mar 06, 2014 by tomorning

5
Average: 5 (4 votes)
Download | Listen
Game: Aria the Animation
Composer(s): Choro Club, Takeshi Senoo, Mina Kubota
Style: Arrangement, Artificial harmonics, Fingerstyle, Natural harmonics

AutoScroll: Slow | Medium | Fast
                                   Rakuyou
                                   (洛陽)
                       ~ from anime "ARIA The ANIMATION" ~


Music by Takeshi Senoo (妹尾武)
arranged by to*morning

Drop D (D A D G B E)
/* [n]  - artificial harmonic 
/*        8va only

 4/4

E|-12--10---9--8--|-------17--15--12--|-10----8--10--|-------8--10---|
B|-----11--10--9--|-<12>------11------|-10-----------|-10------------|
G|----------------|-<12>------11------|-10--------9--|-10----7-------|
D|----------------|-------------------|--------------|---------------|
A|----------------|-------------------|--------------|---------------|
D|----------------|-------------------|--------------|---------------|


|-12----15--17--|-19----15----|-12----10------|--------8--10--|
|-12------------|-15----------|-13------------|----10---------|
|-12------------|-14----------|-------12--10--|-9------0------|
|-10------------|-------12----|---------------|-7-------------|
|---------------|-------------|-13------------|---------------|
|---------------|-------------|---------------|---------------|


|-12----10--12--|-15--12--10--8--|-5-----8-----|-5----3-----|
|-12----11------|-10------11-----|----------8--|-4-------3--|
|---------------|-10-------8-----|----0--5-----|------3-----|
|---------------|----------------|-------------|------------|
|--9------------|----------------|-7-----------|-6----------|
|---------------|----------------|-------------|------------|


|---------3--|------------|----------|------||
|-5----------|-5----3-----|----------|------||
|-4----3-----|-2----3--5--|-2--------|-5----||
|------------|------------|-0--------|-6----||
|------------|------------|----------|-5----||
|-0----6-----|-5----------|-2--------|-8----||

  fermete
|-------------|----5--3--0--|------------|------------|
|-5--3--2--1--|-0-----------|-3----1--3--|------1--3--|
|----3--2--1--|-0-----3-----|-2----------|-2----------|
|-------------|-------4-----|-3-------2--|-3----0-----|
|-------------|-------------|------------|------------|
|-------------|-------------|------------|------------|


|-0----3--5--|-7---------|------------|-------------|
|-0----------|------8----|-5----3-----|----------3--|
|-0----------|-7---------|-5----------|----2--5-----|
|------------|-7----0----|-0----5--3--|-2-----------|
|-3----------|-----------|------------|-0-----------|
|------------|-9---------|-8----------|-------5-----|


|-0-------0--|-3--0--------|------------|------------|
|-0----3-----|-------3--1--|------1-----|------------|
|------3-----|-2-----3-----|-2-------0--|-2----0-----|
|------------|-2-----1-----|-0----------|-1-------0--|
|------------|-------------|------0-----|------1-----|
|-4----------|-3-----------|-2----------|------------|


|------------|------------|----------|------|
|------------|------------|----------|------|
|---------0--|------------|----------|------|
|-2----------|-2----0-----|----------|------|
|-2----1-----|-0----1--3--|-0--------|-3----|
|-0----------|-5----------|-2--------|-8----|


||--0--------0--|-3--0-------|-[7]-----------|
||o----3--3-----|-1-----3----|--------[5]----|
||--2-----0-----|-2-----3----|---------------|
||--2-----------|-------3----|---------------|
||o-------------|------------|---------------|
||--3-----2-----|-0-----5----|---------------|


  1.
|-0--------0--|----5-------|-[5]------------||
|----3--3-----|-8-----3----|--------[5]----o||
|-2-----0-----|-5-----3----|----------------||
|-2-----------|-7----------|----------------||
|-------------|-------3----|---------------o||
|-3-----2-----|-0----------|----------------||


  2.
                rit........................................A tempo
                               3/4
|-2--0-------|---------------||----------|----------|------8--10--||
|-3----------|-[5]-----------||----------|----7--8--|-------------||
|-3-----2----|--------[2]----||----------|-4--------|-------------||
|-------0----|---------------||----------|----------|-------------||
|------------|---------------||-0-----7--|----------|-<5>---------||
|-4-----3----|---------------||----0-----|----------|-------------||


|-12--10---9--8--|-------17--15--12--|-10----8--10--|-------8--10--|
|-----11--10--9--|-<12>------11------|-10-----------|-10-----------|
|----------------|-<12>------11------|-10--------9--|-10----7------|
|----------------|-------------------|--------------|--------------|
|----------------|-------------------|--------------|--------------|
|----------------|-------------------|--------------|--------------|


|-12----15--17--|-19----15----|-12----10------|--------8--10--|
|-12------------|-15----------|-13------------|----10---------|
|-12------------|-14----------|-------12--10--|-9------0------|
|-10------------|-------12----|---------------|-7-------------|
|---------------|-------------|-13------------|---------------|
|---------------|-------------|---------------|---------------|


|-12----10--12--|-15--12--10--8--|-5-----8-----|-5----3-----|
|-12----11------|-10------11-----|----------8--|-4-------3--|
|---------------|-10-------8-----|----0--5-----|------3-----|
|---------------|----------------|-------------|------------|
|--9------------|----------------|-7-----------|-6----------|
|---------------|----------------|-------------|------------|


|---------3--|------------|----------|------||
|-5----------|-5----3-----|----------|------||
|-4----3-----|-2----3--5--|-2--------|-5----||
|------------|------------|-0--------|-6----||
|------------|------------|----------|-5----||
|-0----6-----|-5----------|-2--------|-8----||


||--0--------0--|-3--0-------|-[7]-----------|
||o----3--3-----|-1-----3----|--------[5]----|
||--2-----0-----|-2-----3----|---------------|
||--2-----------|-------3----|---------------|
||o-------------|------------|---------------|
||--3-----2-----|-0-----5----|---------------|


  1.
|-0--------0--|----5-------|-[5]------------||
|----3--3-----|-8-----3----|--------[5]----o||
|-2-----0-----|-5-----3----|----------------||
|-2-----------|-7----------|----------------||
|-------------|-------3----|---------------o||
|-3-----2-----|-0----------|----------------||

        rit...................
|-2--0-------|-[5]---------|------[0]----|----------*|
|-3----------|--------[3]--|-------------|----------*|
|-3-----2----|-------------|-2-----------|----------*|
|-------0----|-------------|-------------|----------*|
|------------|-------------|-0-----------|----------*|
|-4-----3----|-------------|-2-----------|----------*|fine.
Login or Register to remove this ad.

1 comment on Rakuyou

Very pretty =)

5

Very pretty =)