Ads

Mayoikonda Roji he to (Aria the Animation) Guitar Tab

Submitted: Aug 01, 2016 by tomorning

5
Average: 5 (2 votes)
Download | Listen
Game: Aria the Animation
Composer(s): Choro Club, Takeshi Senoo, Mina Kubota
Style: Arrangement, Fingerstyle

This song is also called Straying into an Alley

AutoScroll: Slow | Medium | Fast
                             Mayoikonda Rozieto
                            (迷い込んだ路地へと)
                     ~ from anime "ARIA The animation" ~

Music by Jyouji Sawada (沢田 穣治))
arranged by to*morning


Standard tuning (E,A,D,G,B,E)

                   >                    >                                    
     Q    E  E     E  E  E  E  E  E     E  E  E  E  E  E     Q    Q    Q     
E||-------2--0--|--------------------|--------------------|-----------------|
B||-------------|--4--------0-----0--|--2--------------0--|--4----0---------|
G||-------------|--------2-----2-----|--------2--0--2-----|-----------------|
D||-------------|-----4--------------|-----3--------------|------------4----|
A||-------------|--0-----------------|--------------------|--0--------------|
E||-------------|--------------------|--3-----------------|-----------------|


  >                  >                    >                   >                 
  Q    E  E  Q       E  E  E  E  E  E     E  E  E  E  Q       E  E  Q    E  E   
------------------|--0-----------------|--------------4----|--------0----2--0--|
-------6-----6----|-----3--------------|--------4----------|--2-----2----------|
-------7-----7----|--------2-----------|--5--------5-------|-----1-------------|
--5-------5-------|-----3-----3--2--3--|-----6-------------|-------------------|
--6---------------|--------------------|-------------------|--0----------------|
------------------|--3-----------------|--4----------------|-------------------|


  >                    >                                      >                
  E  E  E  E  E  E     E  E  E  E  E  E     Q    Q    Q       Q    E  E  Q     
--------------------|--------------------|-----------------|------------------|
--4--------0-----0--|--2--------------0--|--4----0---------|-------------6----|
--------2-----2-----|--------2--0--2-----|-----------------|-------7----------|
-----4--------------|-----3--------------|------------4----|--5-------5-------|
--0-----------------|--------------------|--0--------------|--6---------------|
--------------------|--3-----------------|-----------------|------------------|


  >                    >                   >                   >                  
  E  E  E  E  E  E     E  E  E  E  Q       E  E  E  E  Q       E  E  E  E  E  E   
--0-----------------|--------------4----|--------0----------|--------------------|
-----3--------------|--------4----------|--2-----2--2-------|--------------------|
--------2-----------|--5--------5-------|-----1-------------|-----0--5-----6--8--|
-----3-----3--2--3--|-----6-------------|-------------------|--7--------8--------|
--------------------|-------------------|--0----------------|--6-----------------|
--3-----------------|--4----------------|-------------------|--------------------|


  >                   >                      >                   >                  
  E  E  E  E  Q       E  E  E  E  E    E     E  E  E  E  Q       E  E  E  E  E  E   
--2----------------|--------------0--2g3--|--2----------------|--------------------|
--------2----------|-----0--1--3----------|--------2-----2----|-----------0--2--4--|
--------------4----|--2-----2-------------|--------4----------|--2--0--2-----------|
-----4-----4-------|-----3----------------|-----4-----4-------|--------2-----------|
-------------------|----------------------|-------------------|--0-----------------|
--3----------------|--1-------------------|--3----------------|--------------------|


  >                    >                   >                  >                 
  E  E  E  E  Q        E  E  E  E  Q       E  E  Q    Q       E  E  E  E  Q     
--0-----------------|--------1-----1----|--0---------------|--------0----------|
--------------0/----|--3-----------3----|-------------0----|--2-----2-----2----|
--------2-----------|-----------2-------|--------2---------|-----1-----1-------|
-----2-----2--------|-----3-------------|-----3------------|-------------------|
--------------------|--1----------------|------------------|--0----------------|
--1-----------------|-------------------|--1---------------|-------------------|


  >                   >                   >                  >               
  E  E  E  E  Q       E  E  E  E  Q       E  E  Q    Q       E  E  H         
--0----------------|--------------1----|--0---------------|--------0--------|
--------------0----|--3--------3-------|-------------0----|--2-----2--------|
--------2----------|--------2----------|--------2---------|-----1-----------|
-----2-----2-------|-----3-------------|-----2------------|-----------------|
-------------------|--1----------------|------------------|--0--------------|
--1----------------|-------------------|--1---------------|-----------------|


  >                   >                                                     
  E  E  E  E  Q       E  E  E  E  Q       E  E  E  E  Q       H.            
-------------------|--0-----------0----|--1----------------|---------------|
--4-----------4----|--------0----------|-----2--0----------|---------------|
--------6----------|-----2-----2-------|-----------2-------|---------------|
-----4-----4-------|-------------------|--------------3----|---------------|
--0----------------|-------------------|-------------------|---------------|
-------------------|--1----------------|--3-----------3----|---------------|


  >                   >                    >                                    
  E  E  Q    E  E     E  E  E  E  E  E     E  E  E  E  E  E     Q    Q    Q     
--------0----2--0--|--------------------|--------------------|-----------------|
--2-----2----------|--4--------0-----0--|--2--------------0--|--4----0---------|
-----1-------------|--------2-----2-----|--------2--0--2-----|-----------------|
-------------------|-----4--------------|-----3--------------|------------4----|
--0----------------|--0-----------------|--------------------|--0--------------|
-------------------|--------------------|--3-----------------|-----------------|


  >                  >                    >                   >                 
  Q    E  E  Q       E  E  E  E  E  E     E  E  E  E  Q       E  E  Q    E  E   
------------------|--0-----------------|--------------4----|--------0----2--0--|
-------6-----6----|-----3--------------|--------4----------|--2-----2----------|
-------7-----7----|--------2-----------|--5--------5-------|-----1-------------|
--5-------5-------|-----3-----3--2--3--|-----6-------------|-------------------|
--6---------------|--------------------|-------------------|--0----------------|
------------------|--3-----------------|--4----------------|-------------------|


  >                    >                                      >                
  E  E  E  E  E  E     E  E  E  E  E  E     Q    Q    Q       Q    E  E  Q     
--------------------|--------------------|-----------------|------------------|
--4--------0-----0--|--2--------------0--|--4----0---------|-------------6----|
--------2-----2-----|--------2--0--2-----|-----------------|-------7----------|
-----4--------------|-----3--------------|------------4----|--5-------5-------|
--0-----------------|--------------------|--0--------------|--6---------------|
--------------------|--3-----------------|-----------------|------------------|


  >                    >                   >            
  E  E  E  E  E  E     E  E  E  E  Q       S S S S E    
--0-----------------|--------------4----|----------0--||
-----3--------------|--------4----------|--2-----4----||
--------2-----------|--5--------5-------|------6------||
-----3-----3--2--3--|-----6-------------|----6--------||
--------------------|-------------------|--0----------||
--3-----------------|--4----------------|-------------||fine.

Login or Register to remove this ad.