Ads

Hoshikage no Gondola (Aria the Animation) Guitar Tab

Submitted: Jul 08, 2017 by tomorning

5
Average: 5 (5 votes)
Download | Listen
Game: Aria the Animation
Composer(s): Choro Club, Takeshi Senoo, Mina Kubota
Style: Arrangement, Fingerstyle, Natural harmonics

AutoScroll: Slow | Medium | Fast

July, 8 / 2017

                                    Gondola in Starlight
                                       星影のゴンドラ
                          ~ from anime "ARIA The ANIMATION" ~

Music by Takeshi Senoo ( 妹尾 武 )
arranged by to*morning


4/4

Q=80

 (Standard Tuning, EADGBE)

     >                          >                                       >               >                         
                                                                                                         |-3|     
     E  E  E  E  E  E  E  E     E  E  E  E  E  E  E  E      E  E  E  E  E  E  E  E      E  E  Q    E  E  E  Q     
E||--------------2-----------|--------------2-----------||--2--------2--2--0--2--3s--|--5-------------7----------|
B||--------3-----------3-----|--------3-----------3-----||--3-----3-----------2------|--------2----------8--7----|
G||-----2-----2-----2-----2--|-----2-----2-----2-----2--||--2--2-----------3---------|-----2----------8----------|
D||--0-----------------------|--0-----------------------||--0------------------------|-----2----------7----------|
A||--------------------------|--------------------------||---------------------------|---------------------------|
E||--------------------------|--------------------------||--------------3------------|--2----------7-------------|


                             >                        >                         >                         
                  |3|                                                                            |-3|     
  E  Q.     E  E  S E  E     E  E  E  E  Q    Q       E  E  Q    E  E  E  E     E  E  Q    E  E  E  Q     
---------------5----2--0--|--2---------------------|--7-------------9--5--3--|--5-------------7----------|
--8------------2----------|--------2-----1----3----|--------0----------2-----|--------2----------8--7----|
-----0---------0----------|-----2-----2--2---------|-----0-------------0-----|-----2----------8----------|
--------------------------|--0-----------0---------|-----4-------------------|-----2----------7----------|
-----9------0-------------|------------------------|-------------0-----------|---------------------------|
--0-----------------------|------------------------|--3----------------------|--2----------7-------------|


                                                                      >               >                         
                                                                                                       |-3|     
  E  E  E  E  E  E  E  E      E   E  E  E  E  E  E  E     E  E  E  E  E  E  E  E      E  E  Q    E  E  E  Q     
-----------5--3--2--0-----|---2---------3--0-----------|--2--------2--2--0--2--3s--|--5-------------7----------|
--8-----------0--------3--|--(3)-----------2-----2-----|--3-----3-----------2------|--------2----------8--7----|
--0-----0-----------0-----|----------0-----0--------0--|--2--2-----------3---------|-----2----------8----------|
-----0--------------------|-------2-----------2--------|--0------------------------|-----2----------7----------|
--------------------------|---1------------0-----------|---------------------------|---------------------------|
--0-----------------------|----------------------------|--------------3------------|--2----------7-------------|


                               >                        >                                                      
                    |3|                                                                                        
  E  E  E  E  E  E  S E  E     E  E  E  E  Q    Q       E  E  E  E   E  E   E   E     E  E  E  E  E  E  E  E   
-----------------5----2--0--|--2---------------------|--7--------9--10--9---9------|--7--------8--5--------7--|
--8-----0--------2----------|--------2-----1----3----|--------0----------------12--|--------------------------|
-----0-----0--------0-------|-----2-----2--2---------|---------------------10------|--------9-----------8-----|
----------------------------|--0-----------0---------|-----4----------------9------|-----9-----------7--------|
-----9--------0-------------|------------------------|-----------------------------|--------------------------|
--0-------------------------|------------------------|--4------------9-------------|--8-----------7-----------|


                                                                   >               >                        
   E  E   E  E  E  E  E  E     E  E  E  E  H           E  E  E  E  E  E  E  E      E  E  E  E  E  E  E  E   
---------10-----------------|--0--------------------|--2--------2--2--0--2--3s--|--5--------------7--------|
--10--8------8--7-----5-----|--------------3--------|--3-----3-----------2------|--------------------8--7--|
----------0-----------6-----|--------2--------------|--2--2-----------3---------|--------2--------8--------|
-------------------5-----5--|-----5-----5--4--------|--0------------------------|-----2-----2-----7--------|
----------9-----0-----------|--5-----------5--------|---------------------------|--------------------------|
---0------------------------|-----------------------|--------------3------------|--2-----------7-----------|


                            >                        >                         >                       
  E  E  Q    E  E  E  E     E  E  E  E  Q    Q       E  E  Q    E  E  E  E     E  E  Q    E  E  E  E   
----------------5--2--0--|--2---------------------|--7-------------9--5--3--|--5-------------7--------|
--8----------------2-----|--------2-----1----3----|--------0----------2-----|--------2----------8--7--|
--------0-------0--------|-----2-----2--2---------|-----0-------------0-----|-----2----------8--------|
-------------------------|--0-----------0---------|-----4-------------------|-----2----------7--------|
-----9-------0-----------|------------------------|-------------0-----------|-------------------------|
--0----------------------|------------------------|--3----------------------|--2----------7-----------|


                                                              >           >               >                        
                    |--3--|           |--3--|                                                                      
  E  E  E  E  E  E  E  E  E     E  E  E  E  E  E  E  E  E     E  E  E  E  E  E  E  E      E  E  E  E  E  E  E  E   
-----------5--3--2-----0-----|--2--------5--3--0-----------|-----------2--2--0--2--3s--|--5--------------7--------|
--8-----------0-----------3--|-----------------2-----2-----|--------3-----------2------|-----------5--------8--7--|
--0-----0-----------0--------|--------0--------0--------0--|-----2-----------3---------|--------2-----8-----------|
-----0-----------------------|-----2--------------2--------|--0------------------------|-----2--------7-----------|
-----------------------------|--1--------------0-----------|---------------------------|--------------------------|
--0--------------------------|-----------------------------|--------------3------------|--2-----------7-----------|


                                >                        >                                                         
                    |--3--|                                                  |---3--|                              
  E  E  E  E  E  E  E  E  E     E  E  E  E  Q    Q       E  E  E  E   E  E   E  E   E     E  E  E  E  E  E  E  E   
-----------------5-----2--0--|--2---------------------|--7--------9--10--9------9------|--7--------8--5--------7--|
--8-----0--------2-----------|--------2-----1----3----|--------0-------------------12--|--------------------------|
-----0-----0--------0--------|-----2-----2--2---------|---------------------10---------|--------9-----------8-----|
-----4-----------------------|--0-----------0---------|-----4----------------9---------|-----9-----------7--------|
--------------0--------------|------------------------|--------------------------------|--------------------------|
--0--------------------------|------------------------|--4------------9----------------|--8-----------7-----------|


                                                                             |-3|                                 
   E  E   E  E  E  E  E  E     E  E   Q    E  E  E  E      E  E  E  E  E  E  E  Q        E  E  E   E  Q    E  E   
---------10-----------------|--0-----------------------||--------2--5--5--4-----5/----|--9--------10--9-------7--|
--10--8------8--7-----5-----|--------------3-----------||-----2-----------------------|--------0-----------------|
----------0-----------6-----|-----0h--2----------2-----||--------2--------------------|--------------------------|
-------------------5-----5--|--0--------------4-----4--||--------------3--------------|-----6--------------------|
----------9-----0-----------|--------------5-----------||-----4--------------4--------|--8------------8----4-----|
---0------------------------|--------------------------||--2--------------------------|--------------------------|


  Q    E  E  Q    Q       Q.     E  H           E  E  E   E   E  E  E   E      Q     E   E   E   E  E  E   
--5-------7--5----4----|---------------------|-----0--5---9---9--7--9--10--|--12--------12--12--10-----7--|
-----------------------|--2------------------|--------7--10--10------------|------------------------7-----|
-----------------------|---------------------|-----------------------------|------------------------7-----|
-------------3---------|---------------------|----------------0------------|-----------------0------------|
-------4----------4----|---------------------|-----------------------------|--------11--------------------|
--2--------------------|--2---------1--------|--0--------------------------|---9--------------------------|


                                                                    >               >                        
  E  E  E  E   E  E  E  E     E  E  E  E  Q    Q        E  E  E  E  E  E  E  E      E  E  E  E  E  E  E  E   
--5--------5---------9--7--|--7--------0--5---------||--2--------2--2--0--2--3s--|--5--------------7--------|
--------5-----10--9--7-----|-------------------8----||--3-----3-----------2------|-----------5--------8--7--|
--------6------7-----7-----|--------7-----6---------||--2--2-----------3---------|--------2-----8-----8-----|
-----6---------9-----7-----|-----7------------------||--0------------------------|-----2--------7-----------|
---------------------------|--0---------------------||---------------------------|--------------------------|
--0------------0-----------|------------------------||--------------3------------|--2-----------7-----------|


              NH                  >                         >                                                      
                       |3|                                                                                         
  E  E  E     E  E  E  S E  E     E  E  E  E  E  E  Q       E  E  E  E   E  E   E   E     E  E  E  E  E  E  E  E   
--------------------5----2--0--|--2----------------------|--7--------9--10--9---9------|--7--------8--5--------7--|
--8-----------------2----------|--2-----2-----1-----3----|--------0----------------12--|--------------------------|
--------0-----------0----------|--2--2-----2--2--2-------|---------------------10------|--------9-----------8-----|
------------<12>---------------|--0-----------0----------|-----4----------------9------|-----9-----------7--------|
-----9-----------0-------------|-------------------------|-----------------------------|--------------------------|
--0----------------------------|-------------------------|--4------------9-------------|--8-----------7-----------|


   E  E   E  E  E  E  E  E     E  E  E  E  Q    Q       Q.     E   E  Q    E     Q.     E   Q    E  E   
---------10-----------------|--0---------------------|--7------9--10--9----7--|--7------8-----------7--|
--10--8------8--7-----5-----|--------------3---------|--0----------6----------|------------10----------|
----------0-----------6-----|--------2----------7----|-------------0----------|------------------------|
-------------------5-----5--|-----5-----5--4---------|--6---------------------|--7---------------7-----|
----------9-----0-----------|--5-----------5---------|------------------------|--9----------8----------|
---0------------------------|------------------------|------------------------|------------------------|

                                         (*
   E  E   E  E  Q    Q       E  E   E  E  H          
---------10---------------|--0---------0-----------||
--10--8------8--7----5----|---------------3--------||
----------0-----6---------|-----0h--2--------------||
----------------5---------|--0------------4--------||
----------9-----0---------|---------------5--------||
---0----------------------|------------------------||  fine....

Login or Register to remove this ad.

1 comment on Hoshikage no Gondola

holy crap this is awesome!

holy crap this is awesome!