In the Wind (Gradius III) Bass Tab

Submitted: Sep 28, 2008 by auriplane (Last updated: May 25, 2012)

0
Download | Listen
Game: Gradius III
Composer(s): Club Kukeiha
Style: Transcription

This song is also called Stage 3

AutoScroll: Slow | Medium | Fast
            Gradius III (SNES) - Stage III "Deja Vu" BASS TAB
                      Song by Kukeiha Club (KONAMI)

                 Tabbed by auriplane ([email protected])


Four-string bass, standard tuning.

I also made a guitar tab, and the part A-E markers are the same on
both, so you can play them together :-)

    Part A

G |----------------|----------------|----------------|----------------|
D |----7-------7---|----7-------5-7-|----7-------7---|----7-------5-7-|
A |----------------|----------------|----------------|----------------|
E |5-----5---5---5-|5-----5---5-----|5-----5---5---5-|5-----5---5-----|

G |----------------|----------------|----------------|----------------|
D |----7-----------|----7-----------|--7-----7---7---|--7---4---5---6-|
A |------------5-7-|------------5-7-|----------------|----------------|
E |5-----5---5-----|5-----5---5-----|5---5-5---5---5-|5---2---3---4---|

    Part B

G |----------------|----------------|----------------|----------------|
D |----------7---7-|----7-------5-7-|----7-------7---|--7---7---------|
A |----------------|----------------|----------------|----------------|
E |5-----5-----5---|5-----5---5-----|5-----5-5-5---5-|5---------2-3-4-|

G |----------------|----------------|----------------|----------------|
D |----7-------7---|----7-------5-7-|--7-----7---7---|--7---4---5---6-|
A |0---------------|----------7-----|----------------|----------------|
E |------5---5---5-|5-----5---------|5---5-5---5---5-|5---2---3---4---|

    Part C

G |----------------|----------------|----------------|----------------|
D |----7-------7---|----7-------5-7-|----7-------7---|----7---7---5---|
A |----------------|----------------|----------------|----------7-----|
E |5-----5---5---5-|5-----5---5-----|5-----5-5-5---5-|5-----5-------6-|

G |----------------|----------------|----------------|----------------|
D |--------------7-|----9-----------|----9---------7-|9---7-----------|
A |------------9---|------------7-9-|------------9---|--9---7-9-5-7---|
E |7-----7---7-----|7-----7---7-----|7-----7---7-----|--------------7-|

    Part D

G |----------------|----------------|----------------|----------------|
D |----------7-----|--7-----7-------|----9-------7-9-|--5-4-----4-5-7-|
A |----5-7---------|----5-7---------|----------------|------7---------|
E |5-------------5-|----------5-6-7-|------7---7-----|5---------------|

G |----------------|----------------|----------------|----------------|
D |----7---------7-|--------7-----7-|--5---5---5-----|--5-4-----4-5-7-|
A |------5---7-----|----5-7---------|----------------|------7---------|
E |5---------------|--5-------5-----|3---3---------5-|----------------|

    Part E

G |----------------|----------------|----------------|----------------|
D |----------7-----|--7-----7-------|----9-------7-9-|--5-4-----4-5-7-|
A |----5-7---------|----5-7---------|----------------|------7---------|
E |5-------------5-|----------5-6-7-|------7---7-----|5---------------|

G |----------------|----------------|----------------|----------------|
D |----7---------7-|--------7-----7-|----5-----5-----|--5-4-----4-5-7-|
A |------5---7-----|----5-7---------|----------------|------7---------|
E |5---------------|--5-------5-----|3-----3-----5---|----------------|
Login or Register to remove this ad.