02 (Another Century's Episode: R) Bass/Guitar Tab

Submitted: Mar 26, 2011 by Jacob31593 (Last updated: Apr 02, 2011)

5
Average: 5 (1 vote)
Download | Listen
Game: Another Century's Episode: R
Composer(s): Yasunori Hayashi
Style: 2 or more instruments, Alternate picking, Sweep picking, Transcription
Series: A.C.E.

AutoScroll: Slow | Medium | Fast

02 from Another Century's Episode:R
Composed by Orange Range (オレンジレンジ)
Arranged by Yasunori Hayashi (Acid Black Cherry)
Tabbed by Jacob31593
March 26th 2011

this is one of the songs in the game from code geass
180 BPM

Guitar 1

      Q.      Q    E   Q        Q.      Q    E   Q        Q.      Q.         Q     
E||-------------------------|-------------------------|---------------------------|
B||-------------------------|-------------------------|---------------------------|
G||--12------14----L\--9----|--12------14----L\--9----|--12------14------14g17----|
D||-------------------------|-------------------------|---------------------------|
A||-------------------------|-------------------------|---------------------------|
E||-------------------------|-------------------------|---------------------------|


   E   Q     H          E      E   E   E  E  Q     E  E      E  E   E  Q     E  E  E   
---------------------------|-----------------------------|----------------------------|
---------------------------|-----------------------------|----------------------------|
--16--14-------------------|--12--12--10--9--9~----L--9--|------9--10--9~----9-----9--|
------------17~--------10--|-----------------------------|--12------------------------|
---------------------------|-----------------------------|----------------------------|
---------------------------|-----------------------------|----------------------------|


   E   E   E   E  E    Q     E     Q     E      Q     Q     E        Q.      Q    E   Q     
--------------------------------|--------------------------------|-------------------------|
--13--12--10--13--L\--10--------|--------------------------------|-------------------------|
----------------------------10--|--9----10--10g12----10~----L\~--|--12------14----L\--9----|
--------------------------------|--------------------------------|-------------------------|
--------------------------------|--------------------------------|-------------------------|
--------------------------------|--------------------------------|-------------------------|


   Q.      Q    E   Q        Q     E   Q.         Q        E   Q     H          E   
-------------------------|-----------------------------|---------------------------|
-------------------------|-----------------------------|---------------------------|
--12------14----L\--9----|--12----12--14------14g17----|--16--14-------------------|
-------------------------|-----------------------------|------------17~--------10--|
-------------------------|-----------------------------|---------------------------|
-------------------------|-----------------------------|---------------------------|


   E   E   E  E  Q     E  E      E  E   E  Q     E  E  E      E   E   E   E  E   Q    E   
-----------------------------|----------------------------|------------------------------|
-----------------------------|----------------------------|--13--12--10--13--L\--8----8--|
--12--12--10--9--9~----L--9--|------9--10--9~----9-----9--|------------------------------|
-----------------------------|--12------------------------|------------------------------|
-----------------------------|----------------------------|------------------------------|
-----------------------------|----------------------------|------------------------------|


  Q     E      Q     E  Q                                           E.   E.   E     Q     E   E   
-----------------------------||--------|-------|-------|-------|---------------------------------|
-----------------------------||--------|-------|-------|-------|---------------------------------|
--9----10--10g12----10--9----||*-------|-------|-------|-------|--7g9----------------------------|
-----------------------------||*-------|-------|-------|-------|--------12---10--7g10--------10--|
-----------------------------||--------|-------|-------|-------|-------------------------12------|
-----------------------------||--------|-------|-------|-------|---------------------------------|


   E.   E.  E   Q.      E          E.   E.   E   E.   E.   E      Q.       E   E   E   E   E   
----------------------------|---------------------------------|-------------------------------|
----------------------------|---------------------------------|-------------------------------|
------------9---------------|---------------------------------|-------------------------------|
--12---12------12~------L\--|--10g12---12---10--12---12---10--|--10~----------10------10--12--|
----------------------------|---------------------------------|-----------12------12----------|
----------------------------|---------------------------------|-------------------------------|


    E.   E.   E     Q     E   E      E.   E.  E   Q     S S  E      E.   E.   E   E.   E   E.   
---------------------------------|------------------------------|------------------------------|
---------------------------------|------------------------------|------------------------------|
--7g9----------------------------|------------9-----------------|------------------------------|
--------12---10--7g10--------10--|--12---12------12~----x-x-----|--12---12---10--12---12--10---|
-------------------------12------|--------------------------12--|------------------------------|
---------------------------------|------------------------------|------------------------------|


                                      PM  PM  PM  PM  PM  PM  PM  PM PM    PM  PM  PM  PM PM                  
   E   E   E   E   E   E   E   E      E   E   E   E   E   E   E   S  S     E   E   E   S  S     E.   E.   E   
----------------------------------|------------------------------------|-------------------------------------|
----------------------------------|------------------------------------|-------------------------------------|
----------------------------------|------------------------------------|-------------------------------------|
--10------10------10------10--12--|--10--10--10--10--10--10--10--10-10-|--10--10--10--10-10-12g14---12---10--|
------12------12------12----------|------------------------------------|-------------------------------------|
----------------------------------|------------------------------------|-------------------------------------|


                                E  E  E  E  E   E  E  E     Q        Q        Q        E      E   
-----|-----|-----|-----|-----|---------------------------|---------------------------------------|
-----|-----|-----|-----|-----|---------------------------|---------------------------------------|
-----|-----|-----|-----|-----|---------------------------|-------12g14----12g14----12g14--12g14--|
-----|-----|-----|-----|-----|-----------7--9--10--9--7--|---------------------------------------|
-----|-----|-----|-----|-----|---------------------------|---------------------------------------|
-----|-----|-----|-----|-----|---------------------------|---------------------------------------|


  E      Q        Q    Q    E     Q         Q        Q        E      E     E      Q        H        E   
-------------------------------|----------------------------------------|------------------------------|
-------------------------------|----------------------------------------|--------------14g17--------L--|
--L--12g14----12g14----L----L--|--L\----14g16----14g16----14g16--14g16--|--L--14g16--------------------|
-------------------------------|----------------------------------------|------------------------------|
-------------------------------|----------------------------------------|------------------------------|
-------------------------------|----------------------------------------|------------------------------|


               Q.      Q    E   Q        Q.      Q    E   Q        Q     E   Q.         Q     
-----------|-------------------------|-------------------------|-----------------------------|
-----------|-------------------------|-------------------------|-----------------------------|
-----------|--12------14----L\--9----|--12------14----L\--9----|--12----12--14------14g17----|
-----------|-------------------------|-------------------------|-----------------------------|
-----------|-------------------------|-------------------------|-----------------------------|
-----------|-------------------------|-------------------------|-----------------------------|


   E   Q     H          E      E   E   E  E  Q     E  E      E  E   E  Q     E  E  E   
---------------------------|-----------------------------|----------------------------|
---------------------------|-----------------------------|----------------------------|
--16--14-------------------|--12--12--10--9--9~----L--9--|------9--10--9~----9-----9--|
------------17~--------10--|-----------------------------|--12------------------------|
---------------------------|-----------------------------|----------------------------|
---------------------------|-----------------------------|----------------------------|


   E   E   E   E  E    Q     E     Q     E      Q     Q     E        Q.      Q    E   Q     
--------------------------------|--------------------------------|-------------------------|
--13--12--10--13--L\--10--------|--------------------------------|-------------------------|
----------------------------10--|--9----10--10g12----10~----L\~--|--12------14----L\--9----|
--------------------------------|--------------------------------|-------------------------|
--------------------------------|--------------------------------|-------------------------|
--------------------------------|--------------------------------|-------------------------|


   Q.      Q    E   Q        Q     E   Q.         Q        E   Q     H          E   
-------------------------|-----------------------------|---------------------------|
-------------------------|-----------------------------|---------------------------|
--12------14----L\--9----|--12----12--14------14g17----|--16--14-------------------|
-------------------------|-----------------------------|------------17~--------10--|
-------------------------|-----------------------------|---------------------------|
-------------------------|-----------------------------|---------------------------|


   E   E   E  E  Q     E  E      E  E   E  Q     E  E  E      E   E   E   E  E   Q    E   
-----------------------------|----------------------------|------------------------------|
-----------------------------|----------------------------|--13--12--10--13--L\--8----8--|
--12--12--10--9--9~----L--9--|------9--10--9~----9-----9--|------------------------------|
-----------------------------|--12------------------------|------------------------------|
-----------------------------|----------------------------|------------------------------|
-----------------------------|----------------------------|------------------------------|


  Q     E      Q     E  Q        H         Q    E   E      Q     Q     Q     Q     
-----------------------------|-------------------------|--------------------------|
-----------------------------|-------------------------|--------10----12----13----|
--9----10--10g12----10--9----|--10~--------L----L\--L--|--12----------------------|
-----------------------------|-------------------------|--------------------------|
-----------------------------|-------------------------|--------------------------|
-----------------------------|-------------------------|--------------------------|


   E   E   E   E   E   E   E   E      E   E   E   E   E   E   Q       E  E  E  E     
--12--10------10------------------|--------------------------------|---------------||
----------13------13--12--13--12--|--10--12--10------10------------|---------------||
----------------------------------|--------------12------12--------|--9-----------*||
----------------------------------|--------------------------12----|--------------*||
----------------------------------|--------------------------------|---------------||
----------------------------------|--------------------------------|---------------||


Guitar 2

      Q.      Q    E   Q        Q.      Q    E   Q        Q.      Q.         Q     
E||-------------------------|-------------------------|---------------------------|
B||-------------------------|-------------------------|---------------------------|
G||-------------------------|-------------------------|---------------------------|
D||--12------14----L\--9----|--12------14----L\--9----|--12------14------14g17----|
A||-------------------------|-------------------------|---------------------------|
E||-------------------------|-------------------------|---------------------------|


   E   Q     H          E      E   E   E  E  Q     E  E      E  E   E  Q     E  E  E   
---------------------------|-----------------------------|----------------------------|
---------------------------|-----------------------------|----------------------------|
---------------------------|-----------------------------|----------------------------|
--16--14----12~------------|--12--12--10--9--9~----L--9--|------9--10--9~----9-----9--|
-----------------------10--|-----------------------------|--12------------------------|
---------------------------|-----------------------------|----------------------------|


   E   E  E   E  E   Q     E     Q     E     Q     Q     E        Q.      Q    E   Q     
------------------------------|-------------------------------|-------------------------|
------------------------------|-------------------------------|-------------------------|
--12--11--9--12--L\--9--------|-------------------------------|-------------------------|
--------------------------10--|--9----10--9g12----10~----L\~--|--12------14----L\--9----|
------------------------------|-------------------------------|-------------------------|
------------------------------|-------------------------------|-------------------------|


   Q.      Q    E   Q        Q     E   Q.         Q        E   Q     H          E   
-------------------------|-----------------------------|---------------------------|
-------------------------|-----------------------------|---------------------------|
-------------------------|-----------------------------|---------------------------|
--12------14----L\--9----|--12----12--14------14g17----|--16--14----12~------------|
-------------------------|-----------------------------|-----------------------10--|
-------------------------|-----------------------------|---------------------------|


   E   E   E  E  Q     E  E      E  E   E  Q     E  E  E      E   E  E   E  E   Q    E   
-----------------------------|----------------------------|-----------------------------|
-----------------------------|----------------------------|-----------------------------|
-----------------------------|----------------------------|--12--11--9--12--L\--7----7--|
--12--12--10--9--9~----L--9--|------9--10--9~----9-----9--|-----------------------------|
-----------------------------|--12------------------------|-----------------------------|
-----------------------------|----------------------------|-----------------------------|


  Q     E     Q     E  Q                                                                               
----------------------------||--------|-------|-------|-------|-------|-------|-------|-------|-------|
----------------------------||--------|-------|-------|-------|-------|-------|-------|-------|-------|
----------------------------||*-------|-------|-------|-------|-------|-------|-------|-------|-------|
--9----10--9g12----10--9----||*-------|-------|-------|-------|-------|-------|-------|-------|-------|
----------------------------||--------|-------|-------|-------|-------|-------|-------|-------|-------|
----------------------------||--------|-------|-------|-------|-------|-------|-------|-------|-------|


                                           E   E   E   H        E      E   E   E   H        E    
-------|-------|-------|-------|-------|---------------------------|----------------------------|
-------|-------|-------|-------|-------|---------------------------|----------------------------|
-------|-------|-------|-------|-------|---------------------------|----------------------------|
-------|-------|-------|-------|-------|--10--10--10--10-----------|--10--10--10--10--------L\--|
-------|-------|-------|-------|-------|---------------------------|----------------------------|
-------|-------|-------|-------|-------|---------------------------|----------------------------|


   E   E   E   E   E   E   E  E      Q.     E   E  E  E   E      E   E  E  E   Q     E  E   
----------------------------------|--------------------------|-----------------------------|
----------------------------------|--------------------------|-----------------------------|
------------------------------9~--|--L------L\---------------|--------------------------9--|
--10--10--10--10--10--10--12------|--------------------------|----------9--9--10----12-----|
----------------------------------|----------------------10--|--12--12---------------------|
----------------------------------|--------------------------|-----------------------------|


  Q     E  Q.      Q       Q        Q        Q        E      E     E      Q        Q    Q    E   
------------------------|---------------------------------------|-------------------------------|
------------------------|---------------------------------------|-------------------------------|
--Ls----5--7------------|---------------------------------------|-------------------------------|
------------------10----|-------10g12----10g12----10g12--10g12--|--L--10g12----10g12----L----L--|
------------------------|---------------------------------------|-------------------------------|
------------------------|---------------------------------------|-------------------------------|


  Q        Q        Q        E      E     E      Q        H        E              Q.      Q    E   Q     
---------------------------------------|------------------------------|-------|-------------------------|
---------------------------------------|------------------------------|-------|-------------------------|
---------------------------------------|--------------12g14--------L--|-------|-------------------------|
--L----12g14----12g14----12g14--12g14--|--L--12g14--------------------|-------|--12------14----L\--9----|
---------------------------------------|------------------------------|-------|-------------------------|
---------------------------------------|------------------------------|-------|-------------------------|


   Q.      Q    E   Q        Q     E   Q.         Q        E   Q     H          E   
-------------------------|-----------------------------|---------------------------|
-------------------------|-----------------------------|---------------------------|
-------------------------|-----------------------------|---------------------------|
--12------14----L\--9----|--12----12--14------14g17----|--16--14----12~------------|
-------------------------|-----------------------------|-----------------------10--|
-------------------------|-----------------------------|---------------------------|


   E   E   E  E  Q     E  E      E  E   E  Q     E  E  E      E   E  E   E  E   Q     E   
-----------------------------|----------------------------|------------------------------|
-----------------------------|----------------------------|------------------------------|
-----------------------------|----------------------------|--12--11--9--12--L\--9--------|
--12--12--10--9--9~----L--9--|------9--10--9~----9-----9--|--------------------------10--|
-----------------------------|--12------------------------|------------------------------|
-----------------------------|----------------------------|------------------------------|


  Q     E     Q     Q     E        Q.      Q    E   Q        Q.      Q    E   Q     
-------------------------------|-------------------------|-------------------------|
-------------------------------|-------------------------|-------------------------|
-------------------------------|-------------------------|-------------------------|
--9----10--9g12----10~----L\~--|--12------14----L\--9----|--12------14----L\--9----|
-------------------------------|-------------------------|-------------------------|
-------------------------------|-------------------------|-------------------------|


   Q     E   Q.         Q        E   Q     H          E      E   E   E  E  Q     E  E   
-----------------------------|---------------------------|-----------------------------|
-----------------------------|---------------------------|-----------------------------|
-----------------------------|---------------------------|-----------------------------|
--12----12--14------14g17----|--16--14----12~------------|--12--12--10--9--9~----L--9--|
-----------------------------|-----------------------10--|-----------------------------|
-----------------------------|---------------------------|-----------------------------|


   E  E   E  Q     E  E  E      E   E  E   E  E   Q    E     Q     E     Q     E  Q     
----------------------------|-----------------------------|----------------------------|
----------------------------|-----------------------------|----------------------------|
----------------------------|--12--11--9--12--L\--7----7--|----------------------------|
------9--10--9~----9-----9--|-----------------------------|--9----10--9g12----10--9----|
--12------------------------|-----------------------------|----------------------------|
----------------------------|-----------------------------|----------------------------|


  H         Q    E   E      Q     Q    Q     Q        E  E   E  E   E  E   E  E   
------------------------|-------------------------|------------------------------|
------------------------|-------------------------|--10--8------8----------------|
------------------------|--------------9----10----|---------10-----10--9--10--9--|
--8~--------L----L\--L--|--10----12---------------|------------------------------|
------------------------|-------------------------|------------------------------|
------------------------|-------------------------|------------------------------|


   E  E  E   E  E   E   Q       E  E  E  E     
-----------------------------|---------------||
-----------------------------|---------------||
------9--7------7------------|--------------*||
--12--------10-----10--------|--7-----------*||
-----------------------10----|---------------||
-----------------------------|---------------||


Clean Guitar

E||-------|-------|-------|-------|-------|-------|-------|-------|-------|-------|-------|-------|-------|
B||-------|-------|-------|-------|-------|-------|-------|-------|-------|-------|-------|-------|-------|
G||-------|-------|-------|-------|-------|-------|-------|-------|-------|-------|-------|-------|-------|
D||-------|-------|-------|-------|-------|-------|-------|-------|-------|-------|-------|-------|-------|
A||-------|-------|-------|-------|-------|-------|-------|-------|-------|-------|-------|-------|-------|
E||-------|-------|-------|-------|-------|-------|-------|-------|-------|-------|-------|-------|-------|


                            H         H                   H         H                                         
-------|-------|-------||----------------------|-------|---------------------|-------|-------|-------|-------|
-------|-------|-------||------------10--------|-------|-----------10--------|-------|-------|-------|-------|
-------|-------|-------||*---------------------|-------|---------------------|-------|-------|-------|-------|
-------|-------|-------||*---------------------|-------|---------------------|-------|-------|-------|-------|
-------|-------|-------||----------------------|-------|---------------------|-------|-------|-------|-------|
-------|-------|-------||----------------------|-------|---------------------|-------|-------|-------|-------|


-------|-------|-------|-------|-------|-------|-------|-------|-------|-------|-------|-------|-------|
-------|-------|-------|-------|-------|-------|-------|-------|-------|-------|-------|-------|-------|
-------|-------|-------|-------|-------|-------|-------|-------|-------|-------|-------|-------|-------|
-------|-------|-------|-------|-------|-------|-------|-------|-------|-------|-------|-------|-------|
-------|-------|-------|-------|-------|-------|-------|-------|-------|-------|-------|-------|-------|
-------|-------|-------|-------|-------|-------|-------|-------|-------|-------|-------|-------|-------|


                                  E  E  E  E  Q.     E                                                   
-------|-------|-------|-------|------------------------|-------|-------|-------|-------|-------|-------|
-------|-------|-------|-------|--9--9-----9--9---------|-------|-------|-------|-------|-------|-------|
-------|-------|-------|-------|--9--9-----9--9---------|-------|-------|-------|-------|-------|-------|
-------|-------|-------|-------|--6--6-----6--6---------|-------|-------|-------|-------|-------|-------|
-------|-------|-------|-------|------------------------|-------|-------|-------|-------|-------|-------|
-------|-------|-------|-------|------------------------|-------|-------|-------|-------|-------|-------|


-------|-------|-------|-------|-------|-------|-------|-------|-------|-------|-------|-------|-------|
-------|-------|-------|-------|-------|-------|-------|-------|-------|-------|-------|-------|-------|
-------|-------|-------|-------|-------|-------|-------|-------|-------|-------|-------|-------|-------|
-------|-------|-------|-------|-------|-------|-------|-------|-------|-------|-------|-------|-------|
-------|-------|-------|-------|-------|-------|-------|-------|-------|-------|-------|-------|-------|
-------|-------|-------|-------|-------|-------|-------|-------|-------|-------|-------|-------|-------|


-------|--------||
-------|--------||
-------|-------*||
-------|-------*||
-------|--------||
-------|--------||


Rhythm Guitar

     W                   W                   W                   E  Q    H        E     W                 
E||-------------------|-------------------|-------------------|----------------------|-------------------|
B||-------------------|-------------------|-------------------|----------------------|-------------------|
G||-------------------|-------------------|-------------------|--5--5----5--------L--|--7----------------|
D||--7----------------|--5----------------|--3----------------|--5--5----5--------L--|--7----------------|
A||--7----------------|--5----------------|--3----------------|--3--3----3--------L--|--5----------------|
E||--5----------------|--3----------------|--1----------------|----------------------|-------------------|


  W                   W                   E  E  E  E  S S S S S S E     W                   W                 
-------------------|-------------------|-----------------------------|-------------------|-------------------|
-------------------|--6----------------|--8--8--8--8--8-8-8-8-8-8-8--|-------------------|-------------------|
--9----------------|--5----------------|--7--7--7--7--7-7-7-7-7-7-7--|-------------------|-------------------|
--9----------------|--3----------------|--5--5--5--5--5-5-5-5-5-5-5--|--7----------------|--5----------------|
--7----------------|-------------------|-----------------------------|--7----------------|--5----------------|
-------------------|-------------------|-----------------------------|--5----------------|--3----------------|


  W                   E  Q    H        E     W                   W                   W                 
-------------------|----------------------|-------------------|-------------------|-------------------|
-------------------|----------------------|-------------------|-------------------|--6----------------|
-------------------|--5--5----5-----------|--7----------------|--9----------------|--5----------------|
--3----------------|--5--5----5-----------|--7----------------|--9----------------|--3----------------|
--3----------------|--3--3----3-----------|--5----------------|--7----------------|-------------------|
--1----------------|----------------------|-------------------|-------------------|-------------------|


  E  E  E  E  H             H        H           H        H           H        H         
-----------------------||---------------------|--------------------|--------------------|
--8--8--8--8-----------||---------------------|--------------------|--------------------|
--7--7--7--7-----------||*--2-----------------|--------------------|--2-----------------|
--5--5--5--5-----------||*--2--------3--------|--5--------L--------|--2--------3--------|
-----------------------||---0--------3--------|--5--------L--------|--0--------3--------|
-----------------------||------------1--------|--3--------L--------|-----------1--------|


  H        Q    Q                                                                     
---------------------|-------|-------|-------|-------|-------|-------|-------|-------|
---------------------|-------|-------|-------|-------|-------|-------|-------|-------|
-----------5----4----|-------|-------|-------|-------|-------|-------|-------|-------|
--5--------5----4----|-------|-------|-------|-------|-------|-------|-------|-------|
--5--------3----2----|-------|-------|-------|-------|-------|-------|-------|-------|
--3------------------|-------|-------|-------|-------|-------|-------|-------|-------|


  PM PM PM PM PM PM PM PM PM    PM PM PM PM PM                                              
  E  E  E  E  E  E  E  S  S     E  E  E  S  S      E.   E.  E     H            E.   E.  E   
-----------------------------|---------------------------------|---------------------------|
-----------------------------|---------------------------------|---------------------------|
-----------------------------|---------------------------------|---------------------------|
-----------------------------|---------------------------------|---------------------------|
-----------------------------|---------------------------------|---------------------------|
--8--8--8--8--8--8--8--8--8--|--8--8--8--8--8--10g12---10---8--|-----------10g12---10---8--|


  H            E.   E.  E     Q.     E   H           Q.     E     E.   E.  E     Q     E   H        E   
---------------------------|----------------------|---------------------------|------------------------|
---------------------------|----------------------|---------------------------|------------------------|
---------------------------|----------------------|---------------------------|------------------------|
---------------------------|----------------------|---------------------------|------------------------|
---------------------------|----------------------|---------------------------|------------------------|
-----------10g12---10---8--|--8------L\-----------|---------5--5g12---10---8--|--5~----L\--------------|


  E  E  E  E  E  E  E  E     W                   W                   H.           Q     
--------------------------|-------------------|-------------------|--------------------|
--------------------------|-------------------|-------------------|--------------------|
--------------------------|-------------------|-------------------|--------------------|
--------------------------|--3----------------|--L----------------|--5------------5----|
--------------------------|--3----------------|--L----------------|--5------------5----|
-----------5--7--8--7--5--|--1----------------|--L----------------|--3------------3----|


  H        E  E  E  E           W                   W                   W                 
-----------------------|-----|-------------------|-------------------|-------------------|
-----------------------|-----|-------------------|-------------------|-------------------|
-----------------------|-----|-------------------|-------------------|-------------------|
--L--------2--2--2--2--|-----|--7----------------|--5----------------|--3----------------|
--L--------2--2--2--2--|-----|--7----------------|--5----------------|--3----------------|
--L--------0--0--0--0--|-----|--5----------------|--3----------------|--1----------------|


  E  Q    Q    E  E  E     W                   W                   W                   E  E  E  Q    E  Q     
------------------------|-------------------|-------------------|-------------------|------------------------|
------------------------|-------------------|-------------------|--6----------------|--8--8--8--8-------8----|
--5--5----5----5--5--5--|--7----------------|--9----------------|--5----------------|--7--7--7--7-------7----|
--5--5----5----5--5--5--|--7----------------|--9----------------|--3----------------|--5--5--5--5-------5----|
--3--3----3----3--3--3--|--5----------------|--7----------------|-------------------|------------------------|
------------------------|-------------------|-------------------|-------------------|------------------------|


  W                   W                   W                   E  Q    Q    E  E  E     W                 
-------------------|-------------------|-------------------|------------------------|-------------------|
-------------------|-------------------|-------------------|------------------------|-------------------|
-------------------|-------------------|-------------------|--5--5----5----5--5--5--|--7----------------|
--7----------------|--5----------------|--3----------------|--5--5----5----5--5--5--|--7----------------|
--7----------------|--5----------------|--3----------------|--3--3----3----3--3--3--|--5----------------|
--5----------------|--3----------------|--1----------------|------------------------|-------------------|


  W                   W                   E  E  E  E  E  E  E  E     W                   W                 
-------------------|-------------------|--------------------------|-------------------|-------------------|
-------------------|--6----------------|--8--8--8--8-----8--8--8--|--6----------------|--L----------------|
--9----------------|--5----------------|--7--7--7--7-----7--7--7--|--5----------------|--L----------------|
--9----------------|--3----------------|--5--5--5--5-----5--5--5--|--3----------------|--L----------------|
--7----------------|-------------------|--------------------------|-------------------|-------------------|
-------------------|-------------------|--------------------------|-------------------|-------------------|


  E  E  H        Q                   
----------------------|-----|------||
--8--8----------------|-----|------||
--7--7----------------|-----|-----*||
--5--5----------------|-----|-----*||
----------------------|-----|------||
----------------------|-----|------||


Violin

E||-------|-------|-------|-------|-------|-------|-------|-------|-------|-------|-------|-------|-------|
B||-------|-------|-------|-------|-------|-------|-------|-------|-------|-------|-------|-------|-------|
G||-------|-------|-------|-------|-------|-------|-------|-------|-------|-------|-------|-------|-------|
D||-------|-------|-------|-------|-------|-------|-------|-------|-------|-------|-------|-------|-------|
A||-------|-------|-------|-------|-------|-------|-------|-------|-------|-------|-------|-------|-------|
E||-------|-------|-------|-------|-------|-------|-------|-------|-------|-------|-------|-------|-------|


                             E   E   E   E   E   E   E   E      E   E   E   E   E   E   E   E   
-------|-------|-------||-----------------------------------|----------------------------------|
-------|-------|-------||-----------------------------------|------------------15--------------|
-------|-------|-------||*--14--17--16------14--17--16------|--14--17--16--17------17--16------|
-------|-------|-------||*--------------17--------------17--|------------------------------17--|
-------|-------|-------||-----------------------------------|----------------------------------|
-------|-------|-------||-----------------------------------|----------------------------------|


   E   E   E   E   E   E   E   E      E   E   E   E   E   E   E   E      E   E   E   E   E   E   E   E   
----------------------------------|----------------------------------|----------------------------------|
----------------------------------|------------------15--------------|----------------------------------|
--14--17--16------14--17--16------|--14--17--16--17------17--16------|--14--17--16------14--17--16------|
--------------17--------------17--|------------------------------17--|--------------17--------------17--|
----------------------------------|----------------------------------|----------------------------------|
----------------------------------|----------------------------------|----------------------------------|


   E   E   E   E   E   E   E   E      E   E   E   E   E   E   E   E      E   E   E   E   E   E   E   E   
----------------------------------|----------------------------------|----------------------------------|
----------------------------------|----------------------------------|----------------------------------|
--14--17--16------14--17--16------|--14--17--16------14--17--16------|--14--17--16------14--17--16------|
--------------17--------------17--|--------------17--------------17--|--------------17--------------17--|
----------------------------------|----------------------------------|----------------------------------|
----------------------------------|----------------------------------|----------------------------------|


   E   E   E   E   E   E   E   E      E   E   E   E   E   E   E   E      E   E   E   E   E   E   E   E   
----------------------------------|----------------------------------|----------------------------------|
----------------------------------|----------------------------------|----------------------------------|
--14--17--16------14--17--16------|--14--17--16------14--17--16------|--14--17--16------14--17--16------|
--------------17--------------17--|--------------17--------------17--|--------------17--------------17--|
----------------------------------|----------------------------------|----------------------------------|
----------------------------------|----------------------------------|----------------------------------|


   E   E   E   E   E   E   E   E                                                                           
----------------------------------|-----|-----|-----|-----|-----|-----|-----|-----|-----|-----|-----|-----|
----------------------------------|-----|-----|-----|-----|-----|-----|-----|-----|-----|-----|-----|-----|
--14--17--16------14--17--16------|-----|-----|-----|-----|-----|-----|-----|-----|-----|-----|-----|-----|
--------------17--------------17--|-----|-----|-----|-----|-----|-----|-----|-----|-----|-----|-----|-----|
----------------------------------|-----|-----|-----|-----|-----|-----|-----|-----|-----|-----|-----|-----|
----------------------------------|-----|-----|-----|-----|-----|-----|-----|-----|-----|-----|-----|-----|


-----|-----|-----|-----|-----|-----|-----|-----|-----|-----|-----|-----|-----|-----|-----|-----|-----|-----|
-----|-----|-----|-----|-----|-----|-----|-----|-----|-----|-----|-----|-----|-----|-----|-----|-----|-----|
-----|-----|-----|-----|-----|-----|-----|-----|-----|-----|-----|-----|-----|-----|-----|-----|-----|-----|
-----|-----|-----|-----|-----|-----|-----|-----|-----|-----|-----|-----|-----|-----|-----|-----|-----|-----|
-----|-----|-----|-----|-----|-----|-----|-----|-----|-----|-----|-----|-----|-----|-----|-----|-----|-----|
-----|-----|-----|-----|-----|-----|-----|-----|-----|-----|-----|-----|-----|-----|-----|-----|-----|-----|


-----|-----|-----|------||
-----|-----|-----|------||
-----|-----|-----|-----*||
-----|-----|-----|-----*||
-----|-----|-----|------||
-----|-----|-----|------||


Bass

     W                   W                   W                   W                   W                 
G||-------------------|-------------------|-------------------|-------------------|-------------------|
D||-------------------|-------------------|-------------------|-------------------|-------------------|
A||-------------------|-------------------|-------------------|--3----------------|--5----------------|
E||--5----------------|--3----------------|--1----------------|-------------------|-------------------|


  W                   W                   E  E  E  E  E  E  E  E     W                   W                 
-------------------|-------------------|--------------------------|-------------------|-------------------|
--2----------------|--3----------------|--------------------------|-------------------|-------------------|
-------------------|-------------------|-----------3--3--3--3--3--|-------------------|-------------------|
-------------------|-------------------|--3--3--3-----------------|--5----------------|--3----------------|


  W                   W                   W                   W                   E  E  E  Q    E  Q     
-------------------|-------------------|-------------------|-------------------|------------------------|
-------------------|-------------------|-------------------|--2----------------|--3--3-----3----2--3----|
-------------------|--3----------------|--5----------------|-------------------|------------------------|
--1----------------|-------------------|-------------------|-------------------|------------------------|


  E  E  E  E  H             E  E  Q    E  E  Q       E  E  Q    E  E  Q       E  E  Q    E  E  Q     
-----------------------||-------------------------|------------------------|------------------------|
--5--5--5--5-----------||*------------------------|------------------------|------------------------|
-----------------------||*--0--0--0---------------|------------------------|--0--0--0---------------|
-----------------------||--------------1--1--1----|--3--3--3----3--3--3----|-------------1--1--1----|


                                                           P                             P            P       
  E  E  E  E  Q    Q       E.  E.  E  Q    E  E       E.   E.   E   Q.       E      E.   E.   Q    S  E.  E   
------------------------|-------------------------|-----------------------------|----------------------------|
------------------------|-------------------------|-----------------------------|----------------------------|
--------------3----2----|-------------------------|-----------------------------|----------------------------|
--3--3--3--3------------|--5---5---5--5----5--5s--|--10---10---10---Ls------13--|--13---13---13----L-13------|


                                                              P                     
   Q    E   E   E  E  Q       E.  E.  E  Q    E  E       E.   E.   E   Q.       E   
---------------------------|-------------------------|-----------------------------|
---------------------------|-------------------------|-----------------------------|
---------------------------|-------------------------|-----------------------------|
--12-------10--10-----8----|--5---5---5--5----5--5s--|--10---10---10---Ls------13--|


        P            P                                                             
   E.   E.   Q    S  E.  E      Q    E   E   E  E  Q       E.  E.  E  Q    E  E    
----------------------------|---------------------------|-------------------------|
----------------------------|---------------------------|-------------------------|
----------------------------|---------------------------|-------------------------|
--13---13---13----L-13------|--12-------10--10-----8----|--5---5---5--5----5--5s--|


   E.   E.   E   Q     E   E       E.   E.   E   Q     E   E      E   E  E   E   E  E  E  E   
-------------------------------|------------------------------|------------------------------|
-------------------------------|------------------------------|------------------------------|
-------------------------------|------------------------------|------------------------------|
--10---10---10--10----10--10s--|--13---13---13--13----13--13--|--12--12-----10--10-----8--8--|


  E.  E.  E  Q    E  E       E.   E.   E   Q     E   E       E.   E.   E   Q     E   E    
-------------------------|-------------------------------|-------------------------------|
-------------------------|-------------------------------|-------------------------------|
-------------------------|-------------------------------|-------------------------------|
--5---5---5--5----5--5s--|--10---10---10--10----10--10s--|--13---13---13--13----13--13s--|


   Q.      Q     E    Q       Q.     Q.     Q       Q    E  E  E  E  E  E       Q.     Q    E   Q     
---------------------------|---------------------|-------------0-----------|-------------------------|
---------------------------|----------------3----|--L----2--3-----3--2--3--|--3g5--------------------|
---------------------------|---------3-----------|-------------------------|-----------5----L\-------|
--15------15s----8s--15----|--1------------------|-------------------------|--------------------3----|


  H        E  E  E  E           W                   W                   W                 
-----------------------|-----|-------------------|-------------------|-------------------|
-----------------------|-----|-------------------|-------------------|-------------------|
-----------------------|-----|-------------------|-------------------|-------------------|
--L--------0--0--0--0--|-----|--5----------------|--3----------------|--1----------------|


  E  E  E    Q    E  E  E     W                   E  E  E  E  E  E  E  E     E  E  E  E  E  E  E  E   
---------------------------|-------------------|--------------------------|--------------------------|
---------------------------|-------------------|--------------------------|--------------------------|
--3--2--3--3g5----3--2--3--|--5----------------|--------------------------|--------------------------|
---------------------------|-------------------|--0--0--0--0--0--0--0--0--|--1--1--1--1--1--1--1--1--|


  E  E  E  E  E  E  E  E     W                   W                   W                 
--------------------------|-------------------|-------------------|-------------------|
--------------------------|-------------------|-------------------|-------------------|
-----------3-----3--2--3--|-------------------|-------------------|-------------------|
--3--3--3-----------------|--5----------------|--3----------------|--1----------------|


  E  E  E    Q    E  E  E     W                   E  E  E  E  E  E  E  E     E  E  E  E  E  E  E  E   
---------------------------|-------------------|--------------------------|--------------------------|
---------------------------|-------------------|--------------------------|--------------------------|
--3--2--3--3g5----3--2--3--|--5----------------|--------------------------|--------------------------|
---------------------------|-------------------|--0--0--0--0--0--0--0--0--|--1--1--1--1--1--1--1--1--|


  E  E  E  E  E  E  E  E     Q.     Q.     Q       W                   E  E  H        Q                   
--------------------------|---------------------|-------------------|----------------------|-----|------||
--------------------------|----------------3----|--L----------------|--5--5----------------|-----|-----*||
-----------3-----3--2--3--|---------3-----------|-------------------|----------------------|-----|-----*||
--3--3--3-----------------|---------------------|-------------------|----------------------|-----|------||




Duration Legend
---------------
W - whole
H - half
Q - quarter
E - 8th
S - 16th
. - note dotted


Tablature Legend
----------------
L - tied note
x - dead note
g - grace note
s - legato slide
/ -  slide into from below or out of upwards
\ -  slide into from above or out of downwards
~ - vibrato
P - pop

Login or Register to remove this ad.