Ads

When Cultures Meet (Solo version) (Anno 1404) Guitar Tab

Submitted: Feb 17, 2020 by Andarnio (Last updated: Feb 20, 2020)

5
Average: 5 (2 votes)
Download | Listen
Game: Anno 1404
Composer(s): Tilman Sillescu
Style: Fingerstyle

This song is also called Intro theme

AutoScroll: Slow | Medium | Fast
Imagine my surprise when i don't find a single song from this game on this website



e |----------1-----------------------1-------0-------
B |------------------3---------------------------1---
G |------2-------2-------2-------2-------2-----------
D |--0-----------------------0-----------------------
A |--------------------------------------------------
E |--------------------------------------------------


e |----------1-----------------------1-----------0---
B |------------------3-----------------------3-------
G |------2-------2-------2-------2-------2-----------
D |--0-----------------------0-----------------------
A |--------------------------------------------------
E |--------------------------------------------------


e |--1-------3-------0-----------------------1---3---
B |--------------------------3-----------------------
G |------2-------2-------2-----------3---------------
D |--0---------------------------3-------3-----------
A |--------------------------1-----------------------
E |--------------------------------------------------


e |--5-------6-------5-------3---------------5---6---
B |----------------------------------6---5-----------
G |------5-------5-------5-------------------5-------
D |--3---------------------------5-------------------
A |--------------------------3-----------------------
E |--------------------------------------------------


e |--8-----------------------------------------------
B |----------5-------5-------5-------6-------8-------
G |--------------5-----------------------7-----------
D |--------------------------------------------------
A |------7-------------------------------------------
E |--5-----------------------6-----------------------


e |--5---------------5-------8-------5-----------0---
B |--------------5-------5-------5-------5---3-------
G |----------5---------------------------------------
D |------5-------------------------------------------
A |--3-----------------------0-----------------------
E |--------------------------------------------------


e |--1-------3-------0-----------------------1---3---
B |--------------------------3-----------------------
G |------2-------2-------2-----------3---------------
D |--0---------------------------3-------3-----------
A |--------------------------1-----------------------
E |--------------------------------------------------


e |--5-------6-------8-------8-------------------8---
B |------------------------------------------11------
G |------5-------5-------------------8---------------
D |--3-----------------------------------------------
A |------------------------------10------10----------
E |--------------------------8-----------------------


e |--10------------------------------------------0---
B |----------13------11------10--------------3-------
G |--------------------------------------------------
D |------12--------------------------10--------------
A |--10----------------------0-----------------------
E |--------------------------------------------------


e |--1-------0-------------------------------0-------
B |------------------3-----------------------1-------
G |--------------------------3---------------0-------
D |------3-----------------------------------2-------
A |--1---------------------------------------3-------
E |--------------------------------------------------


e |--1-----------1---0-------------------5---3---0---
B |--3-------3-----------1---3-------3-------1-------
G |--2---2-----------------------2-----------0-------
D |--0---------------------------------------2-------
A |------------------------------------------3-------
E |--------------------------------------------------


e |--1-----------1---0-------1-----------------------
B |--3-------3-----------1---3-----------------------
G |--2---2-------------------2-----------------------
D |--0-----------------------0-----------------------
A |--------------------------------------------------
E |--------------------------------------------------
Login or Register to remove this ad.