Kaze Ni Naru (The Cat Returns) Guitar Tab

Submitted: Sep 29, 2007 by ronito (Last updated: Sep 08, 2009)

3.75
Average: 3.8 (4 votes)
Download | Listen
Game: The Cat Returns
Composer(s): Yuji Nomi
Style: Arrangement, Fingerstyle

AutoScroll: Slow | Medium | Fast
     E  S. T S. T S. T S. T S. T S. T S. T    Q    S. T E.  T T S. T S. T E   
E||----------------------------------------|--0----5----3---L---0------------|
B||------------------------------1----3----|-------------------------3----3--|
G||---------------0----0----2--------------|--0------------------------------|
D||-----0----2-----------------------------|---------------------------------|
A||--3-------------------------------------|--3------------------------------|
E||----------------------------------------|---------------------------------|


  E  E  S. T S. T E  S. T E  S. T    Q    S. T E.  T T S. T S. T E   
----------------------------------|--1----------------------0----0--|
-----1-------1----3--1----0--1----|------------1---L---1------------|
-----2----------------------------|-------2-------------------------|
--3-----3-------------------------|---------------------------------|
-------------3----0---------------|--3------------------------------|
--------------------------3-------|--1------------------------------|


  E  E  S. T S. T E  S. T E  S. T    Q    S. T E.  T T S. T S. T E   
------------------0---------------|--3-----------------0------------|
-----3-------3-------3----2--3----|-------0----3---L--------3----3--|
--0--4--0-------------------------|---------------------------------|
-------------0--------------------|--2------------------------------|
----------------------------------|---------------------------------|
------------------3-------1-------|--0------------------------------|


  E  E  S. T S. T S. T S. T S. T S. T    E  S. T S. T E  S. T S. T S. T E   
--------------------------------------|--1---------------------------------|
-----1-------1----3----1----0----1----|---------------1--------------------|
-----2--------------------------------|----------2------------0----2----2--|
--3-----3-----------------------------|-----3---------3------------3-------|
-------------3----0----3---------0----|----------3-------0----3---------3--|
----------------------------3---------|--1---------------------------------|


  E  E  S. T S. T S. T S. T S. T S. T    E  S. T S. T E  S. T S. T S. T E   
--------------------------------------|--0-------5----3-------0------------|
----------------------------1----3----|----------------------------3----3--|
-----0-------0----0----2--------------|----------0-----------------0----2--|
-------------0----2----3----0---------|-----0---------2-------2------------|
-----0--2------------------------2----|--3---------------3-----------------|
--3-----------------------------------|------------------------------------|


  E  E  S. T S. T S. T S. T S. T S. T    E  S. T S. T E  S. T S. T S. T E   
--------------------------------------|--1-------------------------0----0--|
-----1-------1----3----1----0----1----|---------------1-------1------------|
-----2--------------------------------|----------2----------------------0--|
--3-----3-----------------------------|---------------3------------2-------|
-------------3----0----3---------0----|-----0----3-------0----3------------|
----------------------------3---------|--1---------------------------------|


  E  E  S. T S. T S. T S. T S. T S. T    E  S. T S. T E  S. T S. T S. T E   
------------------0-------------------|--3--------------------0------------|
-----3-------3---------3----2----3----|----------0----3-------0----3----3--|
--0--4--0-----------------------------|---------------0------------0-------|
-------------0---------0--------------|----------2----------------------2--|
--------------------------------------|-----2------------2-----------------|
------------------3---------1----3----|--0---------------------------------|


  E  E  S. T S. T S. T S. T S. T S. T    E  S. T S. T E  S. T S. T S. T E   
--------------------------------------|--1---------------------------------|
-----1-------1----3----1----0----1----|---------------1-------1----3----3--|
-----2--------------------------------|----------2-------2---------2-------|
--3-----3-----------------------------|---------------3-------3---------3--|
-------------3----0----3---------2----|-----0----3-------------------------|
----------------------------3---------|--1---------------------------------|


  E  E  S. T S. T E  S. T S. T S. T    E  S. T S. T E  S. T E  S. T E   
-------------0----1--0---------0----|--1-------0------------0-------1--|
-----1-------1------------3---------|----------1----3--1----0----------|
--------0---------0-----------------|-----2--------------------2----0--|
-----2------------------------------|--3-------------------------------|
--3---------------3-----------------|---------------3------------------|
------------------------------------|----------------------------------|


  Q.     S. T S. T S. T S. T S. T    E  S. T S. T E  S. T E  S. T E   
---------1----3----1----3----1----|--0----------------------------0--|
----------------------------------|----------3----1--1----3----------|
--1-------------------------------|-----0----5----0-------4--2----0--|
--3-------------------------------|--2-------------------------------|
----------------------------------|----------------------------------|
----------------------------------|----------------------------------|


  Q.     S. T S. T S. T S. T S. T    E  S. T S. T E  S. T E  S. T E   
---------0----0--------------0----|--0-------------------------------|
-------------------3----1---------|----------3----3-------2-------3--|
--2-------------------------------|-----2------------2----0----------|
--3-------------------------------|--0-------3----0----------3----2--|
----------------------------------|----------------------------------|
----------------------------------|----------------------------------|


  Q.     S. T S. T S. T S. T S. T    E  S. T S. T E  S. T E  S. T E   
-------------------0----1---------|--5-------3----3-------2-------3--|
---------3----3--------------3----|-----0------------3----1--0-------|
----------------------------------|--0-------0--------------------2--|
--4-------------------------------|---------------0------------------|
--5-------------------------------|----------------------------------|
----------------------------------|----------------------------------|


  E  S. T S. T S. T S. T S. T S. T E     E  S. T S. T S. T E  S. T S. T E   
---------------0----1----0----1----3--|--0------------0----1--0----1----3--|
----------0----1---------0----1----5--|------------------------------------|
--0--2--------------2-----------------|---------------0--------------------|
--------------------------------------|----------2---------3---------------|
--------------------------------------|-----3------------------------------|
--------------------------------------|------------------------------------|


  E  S. T S. T S. T E  S. T S. T S. T     Q     S.T  E.  T T  E.  T T E   
---------------3----5--3----5----7----|---8------------------------------|
--3------------0----------------------|--10------------------10---L---8--|
----------0---------0-----------------|---------9----9---L---10---L---9--|
-----0--------------------------------|--------10---10---L---------------|
--------------------------------------|----------------------------------|
--------------------------------------|---8------------------------------|


  H        E  S. T S. T S. T    E  S. T S. T E  E  Q    S. T  
-----------------------------|--1-------0--------------------|
--L--------L--1----3----1----|----------1----3-----1---------|
-----------------------------|-----2---------2----------L----|
-----------------------------|--3---------------3------------|
-----------------------------|-------------------------------|
-----------------------------|-------------------------------|


  E  S. T S. T E  E  E.  T T S. T    E  S. T S. T E  S. T E  S. T E   
--1-------0-----------------------|-----------------------0-------3--|
---------------3-----1-------1----|--3------------1------------------|
----------0--------------L--------|----------2--------------------2--|
-----2---------2------------------|---------------3----------3-------|
--3---------------3---------------|-----0----3-------0----3----------|
----------------------------------|--1-------------------------------|


  E  S. T S. T S. T S. T S. T S. T E     E  S. T S. T S. T S. T S. T S. T E   
---------------0----1----0----1----3--|--0------------0----1----0----1----3--|
----------0----3----0-----------------|-----------------------------------1--|
-----0-------------------0---------0--|---------------0---------2------------|
--0---------------------------0-------|----------2---------3---------3-------|
--------------------------------------|-----3--------------------------------|
--------------------------------------|--------------------------------------|


  E  S. T S. T S. T S. T S. T S. T S. T     Q     S.T  E.  T T  E.  T T E   
---------------3----5----3----5----7----|---8-----0------------------------|
--3------------0---------0--------------|--10------------------10---L---8--|
----------0---------0---------0----7----|---9----------9---L---10---L---9--|
-----0----------------------------------|--------10---10---L---------------|
----------------------------------------|----------------------------------|
----------------------------------------|---8------------------------------|


  H        E  S. T S. T S. T    Q    S. T E.  T T Q    S. T  
-----------------------------|--1----0----------------------|
--L--------L--1----3----1----|--1---------3---L---1----L----|
-----------------------------|--2---------------------------|
-----------------------------|--3---------------------------|
-----------------------------|------------------------------|
-----------------------------|------------------------------|


  Q    S. T Q    E.  T T E     Q    E  Q    Q    E     W                  
--1----0--------------------|-----------------------|-------------------||
--1---------3----1---L---1--|--3-------1----3----1--|--L----------------||
--0-------------------------|--2----2------------0--|--L----------------||
--2-------------------------|--3--------------------|-------------------||
----------------------------|--5-----------------3--|--L----------------||
----------------------------|-----------------------|-------------------||




Duration Legend
---------------
W - whole
H - half
Q - quarter
E - 8th
S - 16th
T - 32nd
X - 64th
. - note dotted
|-n-|  - n-tuplets
Login or Register to remove this ad.

1 comment on Kaze Ni Naru

It's right. It's just I'm

5

It's right. It's just I'm still a noob at guitar so I'm having a hard time playing it correctly and not making it sound like a huge chain of notes.