Morning in a Mining Village (Laputa: Castle In The Sky) Guitar Tab

Submitted: Sep 29, 2007 by ronito (Last updated: Sep 08, 2009)

4.625
Average: 4.6 (16 votes)
Download | Listen
Game: Laputa: Castle In The Sky
Composer(s): Joe Hisaishi
Style: Arrangement, Fingerstyle

AutoScroll: Slow | Medium | Fast
Grand Piano
     E.  S E  Q    E     E.  S E  Q    S. T    Q    E  E.  T T E
E||-------------------|---------------------|---------------------|
B||-------------------|--0---1-3--3----L----|--1----1--1---0------|
G||--0-----0--2-------|---------------------|------------------2--|
D||------0---------0--|---------------------|----------2----------|
A||-------------------|-----------2----L----|--3------------------|
E||--3--------2-------|--3------------------|---------------------|

  Q    E  Q    E     E.  S E  Q    E     E.  S E  Q    S. T
------------------|-------------------|---------------------|
-------0----------|-------------------|--0---1-3--3----L----|
--0-------0-------|--0-----0--2-------|---------------------|
---------------0--|------0---------0--|---------------------|
--2---------------|-------------------|-----------2----L----|
----------3-------|--3--------2-------|--3------------------|

  Q    E  E.  T T E     Q    E  Q    E     Q    E  E  S. T E
---------------------|------------------|--0----0--0----------|
--1----1--1---0------|-------0----------|-------------3----1--|
------------------2--|--0-------0----0--|---------------------|
----------2----------|------------------|----------2----------|
--3------------------|--2---------------|--3------------------|
---------------------|----------3-------|---------------------|

  E.  S E  Q    E     Q    E  E.  T T E     Q.     Q    S. T
-------------------|--0----0--0----------|-------------------|
--3----------------|--------------3---1--|--3----------------|
------0-0--0----0--|---------------------|-------------------|
-------------------|----------2----------|-------------------|
--2----------------|--3------------------|--2----------------|
-----------3-------|---------------------|---------3----L----|

  E.  S E  E  S. T E     Q    E  Q    S. T    E.  S E  E  S. T E
----------------------|--------------------|----------------------|
--0---0-0--1--0-------|-------0------------|-----------0----------|
-------------------2--|--0-----------------|--2---2-2-----1----2--|
----------------------|----------2----L----|----------------------|
-----------0----------|--------------------|--0-------------------|
--2-------------------|--3-------0----L----|-----------0----------|

  Q.     Q    E     E.  S E  Q    E     E.  S E  Q    S. T
-----------------|-------------------|---------------------|
--3--------------|-------------------|--0---1-3--3----L----|
-----------------|--0-----0--2-------|---------------------|
--0-----------0--|------0---------0--|---------------------|
---------0-------|-------------------|-----------2----L----|
-----------------|--3--------2-------|--3------------------|

  Q    E  E.  T T E     Q    E  Q    E     E.  S E  Q    E
---------------------|------------------|-------------------|
--1----1--1---0------|-------0----------|-------------------|
------------------2--|--0-------0-------|--0-----0--2-------|
----------2----------|---------------0--|------0---------0--|
--3------------------|--2---------------|-------------------|
---------------------|----------3-------|--3--------2-------|

  E.  S E  Q    S. T    Q    E  E.  T T E     Q    E  Q.
---------------------|---------------------|-----------------|
--0---1-3--3----L----|--1----1--1---0------|-------0---------|
---------------------|------------------2--|--0-------0------|
---------------------|----------2----------|----------0------|
-----------2----L----|--3------------------|--2--------------|
--3------------------|---------------------|----------3------|

  H        E.  T T
-------------------||
-------------------||
--L--------L---L---||
--L--------L---L---||
-------------------||
--L--------L---L---||

Duration Legend
---------------
W - whole
H - half
Q - quarter
E - 8th
S - 16th
T - 32nd
X - 64th
. - note dotted
|-n-|  - n-tuplets
Login or Register to remove this ad.

9 comments on Morning in a Mining Village

This song made my day. You

This song made my day. You RULE!

Nice!!! How bout trying the

5

Nice!!! How bout trying the main theme of the song (: that one is really touching

http://hjg.com.ar/ghibli/musi

http://hjg.com.ar/ghibli/musica/laputa-innocent/

Try this. And if you have trouble following it, here's it being played:
http://www.youtube.com/watch?v=xJ2GH-CoBW0

the site must have updated,

the site must have updated, but i found the new link.
http://hjg.com.ar/ghibli/musica/laputa/

This tab is 100% fun

This tab is 100% fun

wow

great tab^^i like playing this song

This is really fun to play

5

This is really fun to play and it sounds great. Nice job!

i'm just playing this all day

5

i'm just playing this all day since i found it.

Cute!!

5

This is my favorite movie and favorite song from it! So accurate and cute!