Circle of Eternity (KiRite) Guitar Tab

Submitted: Jul 06, 2008 by Kabukibear (Last updated: Oct 18, 2009)

5
Average: 5 (11 votes)
Download | Listen
Game: KiRite
Composer(s): Yasunori Mitsuda
Style: Arrangement, Artificial harmonics, Fingerstyle

AutoScroll: Slow | Medium | Fast
Circle of Eternity                                
~KiRite~
Composed by: Yasunori Mitsuda
Tabbed by: Justin Lincoln

*Note*
Not technically from a game or an anime, this was actually a
soundtrack composed to accompany a 52 page short story by
Masato Kato. However, since the soundtrack was done by my 
favorite game composer I just couldn't ignore it.

Drop D Tuning

Slowly

                                  ^                         
              |----3----|                                   
     H        Q    Q    Q         E  S S E  E  E  E  E  E   
E||--------------------------||---4----5-L--------------2--|
B||---------------------5----||---5---------5--L-----2-----|
G||----------------6---------||*---------------------------|
D||-----------7--------------||*---------4-----------0-----|
A||--------------------------||------4------------0--------|
D||--------------------------||---4---------0--L-----------|


                             ^                         
  E  E  E  E  E  E  E  E     E  S S E  E  E  E  E  E   
--------------------------|--4----7-L--5--L-----2-----|
--5-----3--2--L-----------|---------------------------|
-----2--------------------|--4------------------------|
-----------------2-----2--|---------4-----------0-----|
-----2--L--0--L-----------|-----4------------0-----0--|
--2-----------------6-----|--4---------0--L-----------|


                               ^                         
  E  S S S S E  E  E  E  E     E  S S E  E  E  E  E  E   
-------4-L-4-5--L-----------|--9--L---------------4--5--|
--5--5-------5--L-----------|-------9-L--7--L-----------|
----------------------------|--9--L---------------------|
---------2------------6--4--|---------7-----------0-----|
-----2-------------4--------|-----7------------0--------|
--2----------4--L-----------|--7---------0--L-----------|


                             ^                         
  E  E  E  E  E  E  E  E     E  S S E  E  E  E  E  E   
--------------------------|--4----5-L--------------2--|
--5-----3--2--L-----------|--5---------5--L-----2-----|
-----2--------------------|---------------------------|
--------2--------2-----2--|---------4-----------0-----|
-----2-----0--L-----------|-----4------------0--------|
--2-----------------6-----|--4---------0--L-----------|


  ^                                          Rit... - - - -                          
  E  E  E  E  Q    Q         S S S S S S S S S S S S S S S S  
--0-----L--0--L----------||------0-----0-----0-----0-----0---|
--0-----L--0--L----------||----------------------------------|
--2-----L--1--L---------*||----2-----2-----2-----2-----2-----|
--------2---------------*||--6-----6-----6-----6-----6-----6-|
-----2-------------2-----||--------------------------0-------|
--2----------------------||--0-------------------------------|


  ^          AH   AH   AH                                            
  H           T    T    S  Q.         W                  
--0--------------------12--L------|---L----------------||
----------------------------------|--------------------||
--2---------------14--------------|--------------------||
--6----------18-------------------|--------------------||
----------------------------------|--------------------||
--0-------------------------------|---L----------------||




Duration Legend
---------------
W - whole
H - half
Q - quarter
E - 8th
S - 16th
T - 32nd
X - 64th
. - note dotted
|-n-|  - n-tuplets


Tablature Legend
----------------
L - tied note
AH - artificial harmonic
^ - brush up
Rit. - Gradually slow down
Login or Register to remove this ad.

5 comments on Circle of Eternity

This sounds great. I'll try

5

This sounds great. I'll try playing it after class tomorrow.

I wish this piece were

5

I wish this piece were longer. I keep stumbling at the end of measure 10 because I anticipate a climax or briefly think that section should be longer than it is. Something like that.

yep, my favorite composer

yep, my favorite composer too. nice short piece, although i prefer his longer works.

My first full SONG!!!

5

Well this is the first full song I learned on guitar it took me all this week but I finally got it. Thanks for the help on the strumming Kabuki (dont know if you remember) but thank you. My youtube video will be up soon just got to tweek my performance a little more. Once again Kabuki thanks for the insperation.

**well I got 99.9% of it I just cant do that last harmonic piece

Mitsuda is one of my favorite

Mitsuda is one of my favorite composers and this is a lovely arrangement. I'm definately gonna try this out ^^
Thank you for the good work!

edit:
I've just uploaded my recording, you can watch it here http://www.youtube.com/watch?v=HKf2G27PaSw