Ads

D.M.C. (Devil May Cry) Guitar Tab

Submitted: Mar 17, 2009 by CpxAzn (Last updated: Mar 17, 2009)

5
Average: 5 (3 votes)
Download | Listen
Game: Devil May Cry
Composer(s): Masami Ueda
Style: Transcription

Click here for a video example.

AutoScroll: Slow | Medium | Fast

No, not Detroit Metal City =)
This is the Devil May Cry opening song.

I think this was the first song that I have ever tabbed in my life, finally putting it up on this site.

                                    D.M.C.                                      


                                                                Tabbed by CpxAzn
Track 1



     Q     Q     Q      Q       Q     E   E  Q     E   E   
E||--------------------------|---------------------8--10--|
B||--9~----8-----------/9----|--8~----L------8~-----------|
G||-------------10~----------|-----------10---------------|
D||--------------------------|----------------------------|
A||--------------------------|----------------------------|
E||--------------------------|----------------------------|


   Q      Q    Q      Q        Q      E  E   H          
--11~----10----8~----11----|--10~-----L--8--10~--------|
---------------------------|---------------------------|
---------------------------|---------------------------|
---------------------------|---------------------------|
---------------------------|---------------------------|
---------------------------|---------------------------|


  Q     Q     Q      Q       Q     E   E  Q     E   E   
--------------------------|---------------------8--10--|
--9~----8-----------/9----|--8~----L------8~-----------|
-------------10~----------|-----------10---------------|
--------------------------|----------------------------|
--------------------------|----------------------------|
--------------------------|----------------------------|


   Q      Q    Q      Q         Q      E   E   Q     Q     
--11~----10----8~----11----|--/13~-----L--11--10----------|
---------------------------|------------------------11----|
---------------------------|------------------------------|
---------------------------|------------------------------|
---------------------------|------------------------------|
---------------------------|------------------------------|


                         PM PM                           PM PM 
   H         Q     S  S  S  S     H          Q     S  S  S  S  
------------------------------|-------------------------------|
--13~--------L-----L-13-------|--13~---------L-----L-13-------|
------------------------15-13-|-------------------------15-13-|
------------------------------|-------------------------------|
------------------------------|-------------------------------|
------------------------------|-------------------------------|


   W                     W                    H          S  Q      E   S  
---------------------|--------------------|------------------------------|
--13~----------------|---L----------------|--13~--------13-14~-----L--16-|
---------------------|--------------------|------------------------------|
---------------------|--------------------|------------------------------|
---------------------|--------------------|------------------------------|
---------------------|--------------------|------------------------------|


   H          S  Q     E   S     H          S  Q     E   S  
----------------15-----------|----------------13-----------|
--13~--------13-------16--13-|----------------------14-----|
-----------------------------|--13~--------13-----------13-|
-----------------------------|-----------------------------|
-----------------------------|-----------------------------|
-----------------------------|-----------------------------|


   Q      S  S  S  S  H             H          S  Q      E   S  
--------------------------------|------------------------------|
--------------------------------|--13~--------13-14~-----L--16-|
--12~-----L-12-13-15-12~--------|------------------------------|
--------------------------------|------------------------------|
--------------------------------|------------------------------|
--------------------------------|------------------------------|


   H          S  Q     E   S     H          S  Q     E   S  
----------------15-----------|----------------13-----------|
--13~--------13-------16--13-|----------------------14-----|
-----------------------------|--13~--------13-----------13-|
-----------------------------|-----------------------------|
-----------------------------|-----------------------------|
-----------------------------|-----------------------------|


   Q      S  S  S  S  H           
--------------------------------||
---------------------13~--------||
--12~-----L-12-13-15------------||
--------------------------------||
--------------------------------||
--------------------------------||




Duration Legend
---------------
W - whole
H - half
Q - quarter
E - 8th
S - 16th
T - 32nd
X - 64th
. - note dotted
|-n-|  - n-tuplets


Tablature Legend
----------------
L - tied note
x - dead note
g - grace note
(n) - ghost note
> - accentuded note
NH - natural harmonic
AH - artificial harmonic
TH - tapped harmonic
SH - semi harmonic
PH - pitch harmonic
h - hammer on
p - pull off
b - bend
br - bendRelease
pb - preBend
pbr - preBendRelease
brb - bendReleaseBend
\n/ - tremolo bar dip
\n - tremolo bar dive
-/n - tremolo bar Release up
/n\ - tremolo bar inverted dip
/n - tremolo bar return
-\n - tremolo bar Release down
S - shift slide
s - legato slide
/ -  slide into from below or out of upwards
\ -  slide into from above or out of downwards
~ - vibrato
W - wide vibrato
tr - trill
TP - tremolo picking
T - tapping
S - slap
P - pop
< - fade in
^ - brush up
v - brush down
Login or Register to remove this ad.

3 comments on D.M.C.

awesome

5

this tab sounds amazing man, nice job, love this series

what did you do or use to get

what did you do or use to get that violin type effect?

I just pulled my volume knob

I just pulled my volume knob back