Tank! (Cowboy Bebop) Bass Tab

Submitted: Aug 04, 2008 by Tidus5803 (Last updated: Aug 04, 2008)

5
Average: 5 (2 votes)
Download | Listen
Game: Cowboy Bebop
Composer(s): Yoko Kanno
Style: Transcription

AutoScroll: Slow | Medium | Fast
Cowboy Bebop Opening - Tank!

Composed by Yoko Kanno

G --------------
D -------------- 
A ---10-9-8-6---
E -8----------6-

G --------------
D ---10-9-8-6--- 
A -8----------6-
E --------------

G----0-----0-----1-----2----------------
D--------0-----0-----1-----2------------
A--1---------------------------0---0-1-2
E---------------------------------------

Mess with it to know which order it's in. :)
Login or Register to remove this ad.