Ads

K.K Bossa (Animal Crossing) Guitar Tab

Submitted: Aug 19, 2011 by Cherucha

5
Average: 5 (3 votes)
Download | Listen
Game: Animal Crossing
Composer(s): Kazumi Totaka, Shinobu Tanaka, Toru Minegishi
Style: Transcription

AutoScroll: Slow | Medium | Fast
Animal Crossing 
K.K. Bossa
Composed by Kazumi Totaka
Transcribed by Angel Long


   Intro 
E|--------------------------------------
B|-3-3--3--3-3--3-3--3-3--3--3-3--3-3---
G|-2-2--2--2-2--2-2--2-2--2--2-2--2-2---
D|-2-2--2--2-2--2-2--2-2--2--2-2--2-2---
A|--------------------------------------
E|--------------------------------------

E|-2-------------0--2-------------------
B|----3-0-3--0-3-------3-0-3--3-2-1-----
G|--------------------------------------
D|--------------------------------------
A|--------------------------------------
E|--------------------------------------

E|---0-3-2--------------2---------------
B|-1-------3---3-0--------3-0-3---------
G|-----------2--------------------------
D|--------------------------------------
A|--------------------------------------
E|--------------------------------------

E|-----0-2-3-2-0-0-3-5-7--6-2---0-2-----
B|-0-3------------------------3---------
G|--------------------------------------
D|--------------------------------------
A|--------------------------------------
E|--------------------------------------

E|-2-----------0-2----------------------
B|---3-0-3-0-3-----3-0-3--3-2-1---------
G|--------------------------------------
D|--------------------------------------
A|--------------------------------------
E|--------------------------------------

E|---0-3-2---------2--------------------
B|-1-------3---3-0---3-0-3--------------
G|-----------2--------------------------
D|--------------------------------------
A|--------------------------------------
E|--------------------------------------

E|-----0-2-3-2-0-0-3-5-7--6-2---0-2-----
B|-0-3------------------------3---------
G|--------------------------------------
D|--------------------------------------
A|--------------------------------------
E|--------------------------------------

E|-3-3-2-0-2-2-0----0-0-----------------
B|----------------3-----3-1-1-1-0-1-----
G|--------------------------------------
D|--------------------------------------
A|--------------------------------------
E|--------------------------------------

E|-------3-3-2-0-2-2-0-2-------3--------
B|-2-3-------------------3-3-2----------
G|--------------------------------------
D|--------------------------------------
A|--------------------------------------
E|--------------------------------------

E|-3--2--0--3--2--0--5--0---------------
B|-------------------------3------------
G|--------------------------------------
D|--------------------------------------
A|--------------------------------------
E|--------------------------------------

E|-2-------------0--2-------------------
B|----3-0-3--0-3--------3-0-3--3-2-1----
G|--------------------------------------
D|--------------------------------------
A|--------------------------------------
E|--------------------------------------

E|---0-3-2--------------2---------------
B|-1-------3---3-0--------3-0-3---------
G|-----------2--------------------------
D|--------------------------------------
A|--------------------------------------
E|--------------------------------------

E|-----0-2-3-2-0-0-3-5-7--6-2---0-2-----
B|-0-3------------------------3---------
G|--------------------------------------
D|--------------------------------------
A|--------------------------------------
E|--------------------------------------
Login or Register to remove this ad.

1 comment on K.K Bossa

Yes.

5

You're making Totakeke proud.

Now we just need a version with the background, as well. :)