Town Hall (Day) (Animal Crossing: Wild World) Guitar Tab

Submitted: Jul 06, 2013 by mizusajt

5
Average: 5 (1 vote)
Download | Listen
Game: Animal Crossing: Wild World
Composer(s): Kazumi Totaka
Style: Alternate picking, Transcription

AutoScroll: Slow | Medium | Fast
Town Hall Theme
Animal Crossing: Wild World/City Folk 
Kazumi Totaka
Tabbed by Jackson
7/4/13

Tempo = 60

Legend
h - hammer on/pull off



e |----------------------------||----------------------------|
B |-----2-----2-----2-----2----||-----2-----2-----2-----2----|
G |-----2-----2-----2-----2----||o----2-----2-----2-----2----|
D |----------------------------||o---------------------------|
A |--0-----------0-------------||--0-----------0-------------|
E |--------0-----------0-------||--------0-----------0-------|


e |-----------------------0----|----------------------------|
B |-----2-----2-----2----------|-----3-----3-----3-----3----|
G |-----2-----2-----2----------|-----2-----2-----2-----2----|
D |----------------------------|--0-----------0-------------|
A |--0-----------0-----2--4----|--------0-----------0-------|
E |--------0-------------------|----------------------------|


e |----------------------------|----------------------------|
B |-----4-----4-----4-----4----|----------------------------|
G |-----2-----2-----2-----2----|---------------1---2----4---|
D |----------------------------|----------------------------|
A |--2-----------2-------------|----------------------------|
E |--------2-----------2-------|--0-------------------------|
				tempo slows down.

e |----------------------------|----------------------------|
B |----------------------------|-----3-----3-----3-----3----|
G |----------------------------|-----2-----2-----2-----2----|
D |------------------------0h1-|--2-----------2-------------|
A |----------------------4-----|--------2-----------2-------|
E |----------------------------|----------------------------|

e |----------------------------|----------------------------||
B |-----2-----2-----2-----2----|-----3-----3-----3-----3----||
G |-----2-----2-----2-----2----|-----2-----2-----2-----2---o||
D |----------------------------|--2-----------2------------o||
A |--0-----------0-------------|--------2-----------2-------||
E |--------0-----------0-------|----------------------------||

Login or Register to remove this ad.