K.K. Steep Hill (Animal Crossing: Wild World) Guitar Tab

Submitted: Nov 08, 2009 by RexLeRouge (Last updated: Nov 08, 2009)

4.666665
Average: 4.7 (3 votes)
Download | Listen
Game: Animal Crossing: Wild World
Composer(s): Kazumi Totaka
Style: 2 or more instruments, Transcription

AutoScroll: Slow | Medium | Fast
K.K. Steep Hill
Animal Crossing
Tabbed by RexLeRouge
Composed by Kazumi Totaka



Mélodie
     W                   W                   E  E  E  S S E  E  E  E   
E||-------------------|-------------------|------------------------6--|
B||-------------------|-------------------|---------------------8-----|
G||-------------------|-------------------|-----7--7--8-7-L--7--------|
D||-------------------|-------------------|---------------------------|
A||-------------------|-------------------|---------------------------|
E||-------------------|-------------------|---------------------------|


  E  S S H        S S S S    Q.     S S Q.     E     E  E  E  E  E  E  E  E   
--5-----------------------|-----------------------|--------------------------|
-------6-L----------6-6-6-|--6------8-------------|--------------------------|
-----7--------------------|-----------------------|-----------5--7--7--8--7--|
--------------------------|-----------8-L------8--|--7--7--8-----------------|
--------------------------|-----------------------|--------------------------|
--------------------------|-----------------------|--------------------------|


  E  E  E  S S E  E  E  E     E  S S H        S S S S    Q.     S S Q.     E   
------------------------6--|--5-----------------------|---------5-------------|
---------------------8-----|-------6-L----------6-6-6-|--8--------8-L------8--|
-----7--7--8-7-L--7--------|-----7--------------------|-----------------------|
---------------------------|--------------------------|-----------------------|
---------------------------|--------------------------|-----------------------|
---------------------------|--------------------------|-----------------------|


  E  E  E  E  E  E  E  E     H           Q.     S S Q    S E  S  
--------------5--------5--|-----------|--6------5-6-L---------6-|
--7--7--7--8-----7--8-----|-----------|-------------------------|
--------------------------|-----------|------------------7-7----|
--------------------------|-----------|-------------------------|
--------------------------|-----------|-------------------------|
--------------------------|-----------|-------------------------|


  Q.     S S Q.     S S    S S Q    S S Q.     S S    Q    E  S S H         
--L------5-6-L------6-6-|--5-5-L----5--------------|----------6-5-L--------|
------------------------|-------------8-6------6-6-|--8----8---------------|
------------------------|--------------------------|-----------------------|
------------------------|--------------------------|-----------------------|
------------------------|--------------------------|-----------------------|
------------------------|--------------------------|-----------------------|


  Q.     S S Q    S E  S    Q.     S S Q.     S S    S E.  E   S S H         
--6------5-6-L---------6-|--L------5-6-L------6-6-|--8-8---8--10-8-L--------|
-------------------------|------------------------|-------------------------|
------------------7-7----|------------------------|-------------------------|
-------------------------|------------------------|-------------------------|
-------------------------|------------------------|-------------------------|
-------------------------|------------------------|-------------------------|


  Q    E  S S    W                   Q    Q.     E  E  E   
-------5------|-------------------|-------6---------5--6--|
----------6-8-|--L----------------|--8-----------8--------|
--------------|-------------------|-----------------------|
--------------|-------------------|-----------------------|
--------------|-------------------|-----------------------|
--------------|-------------------|-----------------------|


  E  S S H        E  S S    H        H           E  E  E  S S H         
--5----------------------|-----------6--------|--5--5--5--6-8-L--------|
-------6-L-------------6-|--8-----------------|------------------------|
-----7---------------7---|--------------------|------------------------|
-------------------------|--------------------|------------------------|
-------------------------|--------------------|------------------------|
-------------------------|--------------------|------------------------|


  E  E  E  S S E  E  E  E     E  S S H        S S S S    Q.     S S Q.     E   
------------------------6--|--5-----------------------|-----------------------|
---------------------8-----|-------6-L----------6-6-6-|--6------8-------------|
-----7--7--8-7-L--7--------|-----7--------------------|-----------------------|
---------------------------|--------------------------|-----------8-L------8--|
---------------------------|--------------------------|-----------------------|
---------------------------|--------------------------|-----------------------|


  E  E  E  E  E  E  E  E     E  E  E  S S E  E  E  E   
--------------------------|------------------------6--|
--------------------------|---------------------8-----|
-----------5--7--7--8--7--|-----7--7--8-7-L--7--------|
--7--7--8-----------------|---------------------------|
--------------------------|---------------------------|
--------------------------|---------------------------|


  E  S S H        S S S S    Q.     S S Q.     E     E  E  E  E  E  E  E  E   
--5-----------------------|---------5-------------|--------------5--------5--|
-------6-L----------6-6-6-|--8--------8-L------8--|--7--7--7--8-----7--8-----|
-----7--------------------|-----------------------|--------------------------|
--------------------------|-----------------------|--------------------------|
--------------------------|-----------------------|--------------------------|
--------------------------|-----------------------|--------------------------|


  H           Q.     S S Q    S E  S    Q.     S S Q.     S S  
-----------|--6------5-6-L---------6-|--L------5-6-L------6-6-|
-----------|-------------------------|------------------------|
-----------|------------------7-7----|------------------------|
-----------|-------------------------|------------------------|
-----------|-------------------------|------------------------|
-----------|-------------------------|------------------------|


  S S Q    S S Q.     S S    Q    E  S S H           Q.     S S Q    S E  S  
--5-5-L----5--------------|----------6-5-L--------|--6------5-6-L---------6-|
-------------8-6------6-6-|--8----8---------------|-------------------------|
--------------------------|-----------------------|------------------7-7----|
--------------------------|-----------------------|-------------------------|
--------------------------|-----------------------|-------------------------|
--------------------------|-----------------------|-------------------------|


  Q.     S S Q.     S S    S E.  E   S S H           Q    E  S S  
--L------5-6-L------6-6-|--8-8---8--10-8-L--------|-------5------|
------------------------|-------------------------|----------6-8-|
------------------------|-------------------------|--------------|
------------------------|-------------------------|--------------|
------------------------|-------------------------|--------------|
------------------------|-------------------------|--------------|


  W                   W                   W                  
-------------------|-------------------|-------------------||
--L----------------|-------------------|-------------------||
-------------------|-------------------|-------------------||
-------------------|-------------------|-------------------||
-------------------|-------------------|-------------------||
-------------------|-------------------|-------------------||



Guitare
      E  E   E  E  E  E  E  E     E  E  E  E  E  E  E  E   
E||----------------------------|--------------------------|
B||----------------------------|--------------------------|
G||---7------7-----7-----7-----|--7-----7-----7-----7-----|
D||--10-----10-----8-----8-----|--7-----7-----8-----8-----|
A||------5------5-----5-----5--|-----5-----5-----5-----5--|
E||----------------------------|--------------------------|


  Gm                         Dm                       
  E  E  E  E  E  E  E  E     E  E  E  E  E  E  E  E   
--------------------------|--------------------------|
--------------------------|--------------6-----------|
--------------3-----------|--------7-----------7-----|
--------5-----------5-----|-----7-----7-----7-----7--|
-----5-----5-----5-----5--|--5-----------------------|
--3-----------------------|--------------------------|


  D#                         F           Bm7/F#           
  E  E  E  E  E  E  E  E     E  E  E  E  E      E  E  E   
--------------------------|------------------------------|
--------------8-----------|------------------------3-----|
--------8-----------8-----|---------------------2-----2--|
-----8-----8-----8-----8--|--------3---------------------|
--6-----------------------|-----3-----3------------------|
--------------------------|--1-----------2---------------|


  Gm                         Dm                       
  E  E  E  E  E  E  E  E     E  E  E  E  E  E  E  E   
--------------------------|--------------------------|
--------------------------|--------------6-----------|
--------------3-----------|--------7-----------7-----|
--------5-----------5-----|-----7-----7-----7-----7--|
-----5-----5-----5-----5--|--5-----------------------|
--3-----------------------|--------------------------|


  D#                         D                          D          
  E  E  E  E  E  E  E  E     E  E  E  E  E  E  E  E     Q    Q     
--------------------------|--------------------------|------------|
--------------8-----------|--------------7-----------|--7----7----|
--------8-----------8-----|--------7-----------7-----|--7----7----|
-----8-----8-----8-----8--|-----7-----7-----7-----7--|--7----7----|
--6-----------------------|--5-----------------------|--5----5----|
--------------------------|--------------------------|------------|


  Gm                         D#                       
  E  E  E  E  E  E  E  E     E  E  E  E  E  E  E  E   
--------------------------|--------------------------|
--------------------------|--------------8-----------|
--------------3-----------|--------8-----------8-----|
--------5-----------5-----|-----8-----8-----8-----8--|
-----5-----5-----5-----5--|--6-----------------------|
--3-----------------------|--------------------------|


  F                          D#          D            
  E  E  E  E  E  E  E  E     E  E  E  E  E  E  E  E   
--------------------------|--------------------------|
--------------------------|--------8-----------7-----|
--------------2-----------|-----------8-----------7--|
--------3-----------3-----|-----8-----------7--------|
-----3-----3-----3-----3--|--6-----------5-----------|
--1-----------------------|--------------------------|


  Gm                         D#                       
  E  E  E  E  E  E  E  E     E  E  E  E  E  E  E  E   
--------------------------|--------------------------|
--------------------------|--------------8-----------|
--------------3-----------|--------8-----------8-----|
--------5-----------5-----|-----8-----8-----8-----8--|
-----5-----5-----5-----5--|--6-----------------------|
--3-----------------------|--------------------------|


  F                          F           Gm                       
  E  E  E  E  E  E  E  E     H           E  E  E  E  E  E  E  E   
--------------------------|--1--------|--------------------------|
--------------------------|--1--------|--------------3-----------|
--------------2-----------|--2--------|--------3-----------3-----|
--------3-----------3-----|--3--------|-----5-----5-----5-----5--|
-----3-----3-----3-----3--|--3--------|--------------------------|
--1-----------------------|--1--------|--3-----------------------|


  D#                         A#                       
  E  E  E  E  E  E  E  E     E  E  E  E  E  E  E  E   
--------------------------|--------------------------|
--------------8-----------|--------------------------|
--------8-----------8-----|--------------7-----------|
-----8-----8-----8-----8--|--------8-----------8-----|
--6-----------------------|-----8-----8-----8-----8--|
--------------------------|--6-----------------------|


  D#                         D                        
  E  E  E  E  E  E  E  E     E  E  E  E  E  E  E  E   
--------------------------|--------------------------|
--------------8-----------|--------------7-----------|
--------8-----------8-----|--------7-----7-----7-----|
-----8-----8-----8-----8--|-----7-----7--7--7-----7--|
--6-----------------------|--5-----------5-----------|
--------------------------|--------------------------|


  Gm                         Dm                       
  E  E  E  E  E  E  E  E     E  E  E  E  E  E  E  E   
--------------------------|--------------------------|
--------------------------|--------------6-----------|
--------------3-----------|--------7-----------7-----|
--------5-----------5-----|-----7-----7-----7-----7--|
-----5-----5-----5-----5--|--5-----------------------|
--3-----------------------|--------------------------|


  D#                         F           Bm7/F#           
  E  E  E  E  E  E  E  E     E  E  E  E  E      E  E  E   
--------------------------|------------------------------|
--------------8-----------|------------------------3-----|
--------8-----------8-----|---------------------2-----2--|
-----8-----8-----8-----8--|--------3---------------------|
--6-----------------------|-----3-----3------------------|
--------------------------|--1-----------2---------------|


  Gm                         Dm                       
  E  E  E  E  E  E  E  E     E  E  E  E  E  E  E  E   
--------------------------|--------------------------|
--------------------------|--------------6-----------|
--------------3-----------|--------7-----------7-----|
--------5-----------5-----|-----7-----7-----7-----7--|
-----5-----5-----5-----5--|--5-----------------------|
--3-----------------------|--------------------------|


  D#                         D                          D          
  E  E  E  E  E  E  E  E     E  E  E  E  E  E  E  E     Q    Q     
--------------------------|--------------------------|------------|
--------------8-----------|--------------7-----------|--7----7----|
--------8-----------8-----|--------7-----------7-----|--7----7----|
-----8-----8-----8-----8--|-----7-----7-----7-----7--|--7----7----|
--6-----------------------|--5-----------------------|--5----5----|
--------------------------|--------------------------|------------|


  Gm                         D#                       
  E  E  E  E  E  E  E  E     E  E  E  E  E  E  E  E   
--------------------------|--------------------------|
--------------------------|--------------8-----------|
--------------3-----------|--------8-----------8-----|
--------5-----------5-----|-----8-----8-----8-----8--|
-----5-----5-----5-----5--|--6-----------------------|
--3-----------------------|--------------------------|


  F                          D#          D            
  E  E  E  E  E  E  E  E     E  E  E  E  E  E  E  E   
--------------------------|--------------------------|
--------------------------|--------8-----------7-----|
--------------2-----------|-----------8-----------7--|
--------3-----------3-----|-----8-----------7--------|
-----3-----3-----3-----3--|--6-----------5-----------|
--1-----------------------|--------------------------|


  Gm                         D#                       
  E  E  E  E  E  E  E  E     E  E  E  E  E  E  E  E   
--------------------------|--------------------------|
--------------------------|--------------8-----------|
--------------3-----------|--------8-----------8-----|
--------5-----------5-----|-----8-----8-----8-----8--|
-----5-----5-----5-----5--|--6-----------------------|
--3-----------------------|--------------------------|


  F                          F                                      
  E  E  E  E  E  E  E  E     H            E  E   E  E  E  E  E  E   
--------------------------|--1--------|----------------------------|
--------------------------|--1--------|----------------------------|
--------------2-----------|--2--------|---7------7-----7-----7-----|
--------3-----------3-----|--3--------|--10-----10-----8-----8-----|
-----3-----3-----3-----3--|--3--------|------5------5-----5-----5--|
--1-----------------------|--1--------|----------------------------|


                             Gm                   
  E  E  E  E  E  E  E  E     E  E  H.             
--------------------------|---------------------||
--------------------------|--------3------------||
--7-----7-----7-----7-----|--------3------------||
--7-----7-----8-----8-----|--------5------------||
-----5-----5-----5-----5--|--------5------------||
--------------------------|-----3---------------||
Login or Register to remove this ad.

2 comments on K.K. Steep Hill

:D thank you really much ,

5

:D thank you really
much , it's wonderful :X :X :X

Suggestion

5

I find it easier to play the first two bars like this:

E|--------------------------------|-----------------------------|
B|--3-----3-----3-----3--------|--3-----3-----3-----3-----|
G|--5-----5-----3-----3--------|--2-----2-----3-----3-----|
D|------0-----0-----0-----0----|-----0-----0-----0-----0--|
A|--------------------------------|-----------------------------|
E|--------------------------------|-----------------------------|