Ads

8:00 PM (Animal Crossing: New Leaf) Guitar Tab

Submitted: Mar 24, 2013 by fuzzguitar1222

4.666665
Average: 4.7 (3 votes)
Download | Listen
Game: Animal Crossing: New Leaf
Composer(s): Kazumi Totaka
Style: Arrangement, Fingerstyle

AutoScroll: Slow | Medium | Fast
Gtr I (E A D G B E) - 'Untitled'


  Q=80
 4/4
  Gtr I
  Q  E  E  E  E  E  E    Q   E  E  E  E  E  E
|----------8----------|--------------------13-|
|----------8-11-10-11-|-10--------------11-15-|
|----------9-----9----|-----10-------10-------|
|------10-10----------|--------10-12----------|
|---------------------|--8--------13----------|
|---------------------|-----------------------|
                         H         H


   E  Q.  Q   E E   Q   E E E E E E
|-12-13-----------|-4---3-4-6---------|
|-13-15---------8-|-----6-----9-8-6---|
|---------7--10---|-----6-------8-----|
|------------10---|---6-------8-------|
|-12------8-------|-4-------6---------|
|-----------------|-------------------|
   H      Q   Q     E E Q   E E E


  H    Q   Q    E E E E Q E S S   E E E E E E E E   Q   Q  H
|-------------|-----------------|-----------------|-1--/8-------|
|------8\--1--|-----1---1-------|-------1-3-----3-|-------------|
|-8----0------|-----3---3---3-2-|-0-2-3---3-2-3---|-------------|
|-6-----------|---3---3---------|-3---------------|-------------|
|-------------|-1---------------|-----------------|-------------|
|-------------|-----------------|-----------------|-------------|
                E                 H       H


  E E E E E  E  E  E    H    Q  E E   H    Q  E E   H
|---------------9-13-|-12-----------|-------------|------|
|---------7-11-11-13-|-13-----------|-5-------5---|-5----|
|-------6------------|------------7-|-7---------7-|-5----|
|---6-8--------------|--------------|-------------|------|
|---4----------------|--------------|-------------|-5----|
|--------------------|--------------|-------------|------|




--------------------------------------------------------------------------------


Duration Legend
---------------
W - whole; H - half; Q - quarter; E - 8th; S - 16th; T - 32nd; X - 64th; a - acciaccatura
+ - note tied to previous; . - note dotted; .. - note double dotted
Uncapitalized letters represent notes that are staccato (1/2 duration)
Irregular groupings are notated above the duration line
Duration letters will always appear directly above the note/fret number it represents the
duration for.  Duration letters with no fret number below them represent rests.  Multi-
bar rests are notated in the form Wxn, where n is the number of bars to rest for.  Low
melody durations appear below the staff

Tablature Legend
----------------
 h   - hammer-on
 p   - pull-off
 b   - bend
 pb  - pre-bend
 r   - bend release (if no number after the r, then release immediately)
 /\  - slide into or out of (from/to "nowhere")
 s   - legato slide
 S   - shift slide
 - natural harmonic
[n]  - artificial harmonic
n(n) - tapped harmonic
 ~   - vibrato
 tr  - trill
 T   - tap
 TP  - trem. picking
 PM  - palm muting
\n/  - tremolo bar dip; n = amount to dip
 \n  - tremolo bar down
 n/  - tremolo bar up
/n\  - tremolo bar inverted dip
 =   - hold bend; also acts as connecting device for hammers/pulls
 <> - volume swell (louder/softer)
 x   - on rhythm slash represents muted slash
 o   - on rhythm slash represents single note slash

Misc Legend
-----------
 |  - bar
||  - double bar
||o - repeat start
o|| - repeat end
*|  - double bar (ending)
 :  - bar (freetime)
 $  - Segno
 &  - Coda
Tempo markers -  = BPM(8/16=s8/s16), where s8 = swing 8ths, s16 = swing 16ths
Login or Register to remove this ad.

1 comment on 8:00 PM

Haha, love it!

5

Haha, love it!