10:00 AM (Animal Crossing: New Leaf) Guitar Tab

Submitted: Mar 20, 2014 by MADMac

0
Download | Listen
Game: Animal Crossing: New Leaf
Composer(s): Kazumi Totaka
Style: 2 or more instruments, Arrangement

AutoScroll: Slow | Medium | Fast

Tempo: 97 BPM
Key: D major

Please note that this is an arrangement for acoustic guitar, and not an exact tab for the song. I have a MIDI included with the exact notes for the song.

I ran the lead guitar through an amp for effect, but you don't have to, of course.

This arrangement is divided into two parts, rhythm and lead.

Intro

Rhythm:

E|X---X-----X-X---|
B|X---X-----X-X---|
G|X---X-----X-X---|
D|X---X-----X-X---|
A|X---X-----X-X---|
E|X---X-----X-X---|

Lead:

E|--------------5-|
B|--------------4-|
G|----------------|
D|----------------|
A|----------------|
E|----------------|

Main Rhythm

This part plays through the majority of the song.

E|----------------|
B|----------------|
G|----------------|
D|----------------|
A|--5---5---------|
E|----------3---5-|

Variation:

E|----------------|
B|----------------|
G|----------------|
D|----------------|
A|--5---5---------|
E|----------3-5---|

On the second repeat, I switch to chords. You don't have to, as it's not even in the song, but I like the way it sounds.

E|--2---2---3---0-|
B|X-3-X-3---3---2-|
G|X-2-X-2---0-X-2-|
D|X-0-X-0-X-0-X-2-|
A|--------X-2-X-0-|
E|--------X-3-----|

Variation 1:

E|--2-2-2---3---0---|
B|X-3-3-3---3---2---|
G|X-2-2-2---0-X-2---|
D|X-0-0-0-X-0-X-2---|
A|--------X-2-X-0---|
E|--------X-3-------|

Variation 2:

E|--2---2--X3-0---|
B|X-3-X-3--X3-2---|
G|X-2-X-2--X0-2---|
D|X-0-X-0-X-0-2---|
A|--------X-2-0---|
E|--------X-3-----|

Lead part

E|---------------------------|---10-------------|
B|--10-10-10-10-10-10h12p10p8|10----7-----------|
G|---------------------------|------------------|
D|---------------------------|------------------|
A|---------------------------|------------------|
E|---------------------------|------------------|


E|---------------------------|---10-------------|
B|--10-10-10-10-10-10h12p10p8|10----------------|
G|---------------------------|------7-----------|
D|---------------------------|------------------|
A|---------------------------|------------------|
E|---------------------------|------------------|

There's also sometimes when the lead plays an octave harmony of the rhythm.

E|--10---10----------|
B|------------8---10-|
G|-------------------|
D|-------------------|
A|-------------------|
E|-------------------|

Variation:

E|--10---10----------|
B|------------8-10---|
G|-------------------|
D|-------------------|
A|-------------------|
E|-------------------|

There's also the E major harmony thing that happens sometimes.

E|4---|
B|5---|
G|----|
D|----|
A|----|
E|----|

That's it. I've included a GP5 and the MIDI in a zip folder for you. I hope you enjoy!

Login or Register to remove this ad.