Ads

1:00 AM (Animal Crossing: New Leaf) Guitar Tab

Submitted: Feb 26, 2016 by Alleeelex (Last updated: Sep 17, 2017)

5
Average: 5 (3 votes)
Download | Listen
Game: Animal Crossing: New Leaf
Composer(s): Kazumi Totaka
Style: Arrangement, Fingerstyle

AutoScroll: Slow | Medium | Fast
1 AM
Animal Crossing: New Leaf
Composed by: Kazumi Totaka
Tabbed by: Alleeelex
2/11/16

Capo 2
67 bpm
                          $ (segno)
              E  E  E     E  E  Q    E  E  E  E     E  E  E  E  Q.     E     E  E  Q    E  E  E  E
e||-----------2--3--5--|----------------------0--|--------------2------5--|----------------------0--|
B||--------------------|-------------------2-----|--------2--0------------|-------------------2-----|
G||--------------------|-------------------------|-----2------------------|-------------------------|
D||--------------------|--------4-------2--------|--0---------------------|--------4-------2--------|
A||--------------------|-----2-------0-----------|------------------------|-----2-------0-----------|
E||--------------------|--0----------------------|------------------------|--0----------------------|

  E  E  E  E  Q.     E     E  E  Q    E  E  E  E     E  E  E  E  E  E  E  E     E  E  Q    E  E  E  E
--------------0------5--|----------------------0--|--------------2--2--3--5--|----------------------0--|
--------2--0------------|-------------------2-----|--------2--0--------------|-------------------2-----|
-----2------------------|-------------------------|-----2--------------------|-------------------------|
--0---------------------|--------4-------2--------|--0-----------------------|--------4-------2--------|
------------------------|-----2-------0-----------|--------------------------|-----2-------0-----------|
------------------------|--0----------------------|--------------------------|--0----------------------|
                  Fine
  E  E  E  E  H            E  E  Q    E  E  Q       E  E  E  E  H            E  E  Q    E  E  Q
--------------2---------|--------2----------9----|-------------14---------|--------2----------9----|
--------2--0------------|------------------------|-------14-12------------|------------------------|
------------------------|-----4----------9-------|----14------------------|-----4----------9-------|
-----4------------------|--2----------7----------|-12---------------------|--2----------7----------|
--2---------------------|------------------------|------------------------|------------------------|
------------------------|------------------------|------------------------|------------------------|

  E  E  E  E  H            E  E  Q    E  E  Q       E  E  E  E  H            E  E  Q    E  E  Q
-------------12---------|--------2----------9----|-------------14---------|--------2----------9----|
-------14-12------------|------------------------|-------14-12------------|------------------------|
----14------------------|-----4----------9-------|----14------------------|-----4----------9-------|
-12---------------------|--2----------7----------|-12---------------------|--2----------7----------|
------------------------|------------------------|------------------------|------------------------|
------------------------|------------------------|------------------------|------------------------|
               D.S. al Fine
  E  E  E  E  E  E  E  E
--------9----14--2--3--5--||
----------12--------------||
----11--------------------||
--9-----------------------||
--------------------------||
--------------------------||
Login or Register to remove this ad.