Ads

7AM (Animal Crossing: New Horizons) Guitar Tab

Submitted: Jun 26, 2020 by Alleeelex (Last updated: Jun 27, 2020)

5
Average: 5 (5 votes)
Download | Listen
Game: Animal Crossing: New Horizons
Composer(s): Yasuaki Iwata; Yumi Takahashi; Shinobu Nagata; Sayako Doi; Masato Ohashi
Style: Arrangement, Fingerstyle
Series: Animal Crossing

This song is also called 7:00 AM

AutoScroll: Slow | Medium | Fast
7AM
Animal Crossing: New Horizons
Yasuaki Iwata, Yumi Takahashi, Shinobu Nagata, Sayako Doi, Masato Ohashi
Alleeelex
June 25, 2020

BPM - 112
4/4 time

      Q.     Q.     Q       Q.     E  Q.     E     Q.     Q.     Q       Q.     E  Q.     E   
E||----------------------|----------------------|---------------------|----------------------|
B||----------3-----------|---------3------------|---------3-----------|----------------------|
G||*--2-------------2----|--1-------------------|--0-------------0----|----------------------|
D||*---------------------|----------------------|---------------------|--4------4------------|
A||---2------2-----------|----------------------|--0------0-----------|--5------5---------0--|
E||----------------------|--0------0---------3--|---------------------|----------------------|



  Q    E  E  H           Q.     E  Q.     E     Q    E  E  Q    Q       Q.     Q    E  E  E   
-------2--------------|--1g2-----------------|-------2----------7----|--5--------------------|
-------------3--------|---------3------------|-------------3---------|---------3-------------|
--2-------------------|--1-------------------|--0--------------------|-----------------0--1--|
----------------------|----------------------|-----------------------|--4------4----4--------|
--2-------2-----------|----------------------|--0-------0------------|--5------5----------0--|
----------------------|--0------0---------3--|-----------------------|-----------------------|


1.______________________
  Q    E  E  Q    E  E     Q.     E  Q.     E     E  E  E  E  Q    Q       Q.     E  Q.     E
-------2-------------1--|--2-------------------|-----2-----7\-5---------|--2---------------------||
-------------3----------|---------3------------|--------3----------3----|---------3--------------||
--2---------------2-----|--1-------------------|--0----------------0----|-----------------------*||
------------------------|----------------------|------------------------|--4------4-------------*||
--2-------2-------------|----------------------|--0--------0------------|--5------5---------0----||
------------------------|--0------0---------3--|------------------------|------------------------||


2.____________________
  Q    E  E  Q    Q       E  E  E  E  Q.     E     Q.     Q     E  E  E     E  E  Q    H
-------2---------------|--2p-1h-2---------------|--------------10--9--7--|--5-------------------|
-------------3---------|-----------3------------|------------------------|-----3--3-------------|
--2---------------2----|--1---------------------|--0------7--------0-----|----------------------|
-----------------------|------------------------|------------------------|--4--4--4-------------|
--2-------2------------|------------------------|--0------0--------------|--5--5--5-------------|
-----------------------|--0--------0---------3--|------------------------|----------------------|



  E  E  E  Q    E  E  E     E  E  E  Q.     Q       Q.     Q.     Q       Q.     Q.     Q
-----------4----6--7--2--|-----------2-----------|---------------------|---------------------|
--0--2--4----------------|--------0--------------|--4------4-----------|--4------4-----------|
-------------------------|-----1-----------------|--3------3-----------|--3------3-----------|
-------------------------|-----------------------|--4------4-----------|--4------4-----------|
-------------------------|-----------------------|--2------2-----------|--2------2-----------|
--2--------2-------------|--2--------2-----------|---------------------|---------------------|


  ^                      ^
  Q    Q    Q    Q       Q.     E  H           E  E  E  Q    E  Q
-------2---------7----|--5------------------|------------------------|
--3---------3---------|-(3)-----3--3--------|--1--0------------------|
--0-------------------|--0------------------|--------2--0----2-------|
--2-------------------|--2------------------|------------------------|
----------------------|--3------------------|-------------------3----|
--0-------------------|---------------------|------------------------|


                                                                                          D.C.
  Q.     Q.     Q       Q.     E  Q.     E     Q.     Q.     Q       Q.     Q    E  E  E   
---------------------|----------------------|---------------------|-----------------------||
---------3-----------|---------3------------|---------3-----------|-----------------------||
--2-------------2----|--1-------------------|--0-------------0----|-----------------0--1--||
---------------------|----------------------|---------------------|--4------4----4--------||
--2------2-----------|----------------------|--0------0-----------|--5------5----------0--||
---------------------|--0------0---------3--|---------------------|-----------------------||


Duration Legend
---------------
W - whole
H - half
Q - quarter
E - 8th
S - 16th
. - note dotted



Tablature Legend
----------------
g - grace note
h - hammer on
p - pull off
/ -  slide into from below or out of upwards
\ -  slide into from above or out of downwards
Login or Register to remove this ad.

2 comments on 7AM

Perfect

5

Its easy to play and groove perfectly!

Perfect

5

Just like the original. Thanks for making this!