Ads

1PM (Animal Crossing: New Horizons) Guitar Tab

Submitted: May 14, 2020 by hugosheehan (Last updated: May 18, 2020)

4
Average: 4 (5 votes)
Download | Listen
Game: Animal Crossing: New Horizons
Composer(s): Yasuaki Iwata; Yumi Takahashi; Shinobu Nagata; Sayako Doi; Masato Ohashi
Style: Fingerstyle
Series: Animal Crossing

AutoScroll: Slow | Medium | Fast
Animal Crossing: New Horizons 1PM Music
Composed by Yasuaki Iwata, Yumi Takahashi, Shinobu Nagata, Sayako Doi, Masato Ohashi
Transcribed by Hugo Sheehan

This tab includes the bass part (on the two lower strings) along with the guitar chords (on the other four  strings), but not the synth parts that come in after the first section. Should be accurate to the actual song. A couple of the chords in the last section are a bit hard to play with the bass notes but they’re all doable.


[First line]

e|--------1/2p0---------8/9--7--------0------------0h2--------1/2p0-----------------9--7-----0--0--|
B|--------1/2p0---------8/9--7--------0------------0h---------1/2p0-----------9--5-----------0--2--|
G|----------------------------------------------------------------------------------------------1--|
D|----------------------------------------------------------------------------------------------2--|
A|---------------0--2--------------------0--1--2---------------------0--4--2--------------------0--|
E|--0--4------------------------0--4--------------------0--4---------------------------0--4--------|

[Second line]

e|--------1/2p0---------8/9--7--------0------------0h2--------1/2p0-----------|
B|--------1/2p0---------8/9--7--------0------------0h---------1/2p0-----------|
G|----------------------------------------------------------------------------|
D|----------------------------------------------------------------------------|
A|---------------0--2--------------------0--1--2---------------------0--4--2--|
E|--0--4------------------------0--4--------------------0--4------------------|

[Chords near the end]

e|-----7-----4--0--2--0--2--1--0--2--|
B|-----5-----5--2--3--2--2--2--2--0--|
G|-----6-----4--1--2--2--3--1--2--2--|
D|--------------2--0--2--------2--1--|
A|--------------0-----0--1--4-----2--|
E|--0-----4--------------------2-----|

************************************

| x   Dead note
| g   Grace note
| (n) Ghost note
| h   Hammer-on
| p   Pull-off
| r   Release
| >   Accented note
| t   Tapping
| b   Bend
| br  Bend release
| pb  Pre-bend
| pbr Pre-bend release
| /   Slide up
| \   Slide down
| ~   Vibrato
| s   Slap
| P   Pop
| PM  Palm mute
| TR  Trill
| N   Tremolo

************************************
Login or Register to remove this ad.

1 comment on 1PM

Suggestion

As I hear,it sounds like below.

[Chords near the end]

e|-----7-----4--0--2--0--2--1--0--2--|
B|-----5-----5--2--3--2--2--1--2--2--|
G|-----6-----4--1--2--1--3--1--2--2--|
D|--------------2-----2--------------|
A|--------------0--2--0-----4-----2--|
E|--0-----4--------------4-----2-----|

E6 - EonG# - AM7 - Bm7 - AM7 - D#m7/G# - C#M7 - F#m7 - B9 - (E)

[E Major]                 [C#Major]        [E Major]
I6 - I/III - IVM7 - Vm7 - bVIM7 - IIm7/V - VIM7 - IIm7 - V9 - (I)

Anyway I'm glad to see the arrangement of one of my favorite piece.
Thank you!