Ads

The City (Day) (Animal Crossing: City Folk) Guitar Tab

Submitted: Apr 15, 2020 by guitarsvd (Last updated: Apr 26, 2020)

0
Download | No audio :(
Game: Animal Crossing: City Folk
Composer(s): Manaka Tominaga, Shiho Fujii
Style: Arrangement, Artificial harmonics, Fingerstyle, Natural harmonics

Click here for a video example.

AutoScroll: Slow | Medium | Fast
Title: The City (Day)
SubTitle: Animal Crossing City Folk
Artist: Cecil Chau (GuitarSVD)
Music: Kazumi Totaka
Tempo = 160
Nylon Guitar

Legend
L - tied note
x - dead note
h - hammer on/pull off
b - bend
s - slide
~ - vibrato
g - ghost note
> - accentuated note
t - trill
M - palm mute
. - staccato
P - popping (bass)
S - slapping (bass)
+ - tapping
W - wide vibrato
< - fade in
w - whammy bar
= - tremolo picking
v - brush up
^ - brush down
V - pick stroke up
n - pick stroke down

                                                              
E |--------------------9h-8h-9-------|--12------------------||
B |-----------10h9h-10---------------|--12----2-------------||
G |--11h10h11------------------------|----------------------||
D |-----------------------------0----|----------------------||
A |----------------------------------|----------------------||
E |----------------------------------|-----------0----------||

                                                              
-0-------------------|--2-------------------|--4-------------|
-------2-------------|--------2-------------|-----------2----|
o------2-------------|--------2-------------|--------2--2----|
o------------2-------|--------------2-------|--------2-------|
----------0----------|----------------------|-----0----------|
---------------------|-----------0----------|----------------|

                                                                     
--2-------------------|--0-------------------|--2--0----------------|
--------2-------------|--------2-------------|--------2-------------|
--------2-------------|--------------2--2----|--------------3--3----|
--------------2-------|--------------2-------|----------------------|
----------------------|-----------0----------|-----------1----------|
-----------0----------|----------------------|----------------------|

                                                                =               
----------------|--------0-------------|----------------|--------0-------------|
--3L------------|--3-------------------|--2-------------|--2--3----------------|
--------2-------|--------------1--1----|-----------2----|--2--------------2----|
--------4--5----|--------------2-------|--------2-------|--------------2-------|
-----2----------|----------------------|-----0----------|----------------------|
----------------|-----------0----------|----------------|-----------0----------|

                            =
----------------|--------2-------|----------------|-----2--4-------------|
--3-------------|--3--5--3-------|--5-------------|--5-------------------|
-----------4----|--4--4----------|--2--------2----|--2--------------2----|
--------4-------|----------------|--------2-------|--------------2-------|
-----2----------|----------------|-----0----------|----------------------|
----------------|-----------0----|----------------|-----------0----------|


--2-------------|-----4--5-------|--4----------------------------------------|
-----------1----|--7-----4-------|--------------------------------6-----6----|
--------2-------|-----5----------|-----------------------5-----5-----5-------|
-----1----------|--6-------------|--------------------6-----6----------------|
----------------|----------------|-----4-----------4-------------------------|
----------------|-----------4----|-------------------------------------------|


--4----------|--------4----|--5-------------|--4--2----------------|
--------4----|--6--7--6----|-----------2----|--2-----5-------------|
--------5----|-----5-------|--------2-------|--------------2--2----|
-----6-------|--6----------|----------------|----------------------|
-----4-------|--4----------|----------------|----------------------|
-------------|-------------|-----2----------|-----------2----------|


----------------------|-----------------0--2----|--3-------------|
--4--2L---------------|--2-----------2----------|-----------0----|
-----------------1----|-----------1-------------|--------0-------|
--------------2-------|--------2----------------|----------------|
----------------------|-------------------------|----------------|
-----------0----------|-----0-------------------|-----0----------|


--2--0----------------|----------------------|----------------------|
--------3-----0-------|--2-------------------|----------------------|
--0--------------0----|-----4----------------|--4--2--1-------------|
----------------------|--------------4--4----|--------------4--2----|
----------------------|-----------2----------|-----------2----------|
-----------0----------|----------------------|----------------------|


----------------|----------------|--------2----|----------------------|
--5-------------|--------5--5----|-----4--4----|--------3--3----------|
-----------6----|--------6--6----|-----3-------|--------------3-------|
--------6-------|----------------|-------------|-----------4----------|
-----4----------|----------------|-------------|----------------------|
----------------|-----4----------|--2----------|----------------------|


----------------|--0-------------------|----------------|--2-------------------|
--------2-------|--------2-------------|--------4-------|--------3-------------|
-----2--2-------|--------------2--2----|-----4--4-------|--------------3--3----|
--4--4----------|-----------2----------|--6--6----------|-----------4----------|
-----------2----|----------------------|-----------4----|----------------------|
----------------|----------------------|----------------|-----------2----------|


----------------------|--0-------------------|
--------2-------------|--------2-------------|
-----2-----------2----|-----------------1----|
--4-----------4-------|--------------2-------|
-----------2----------|----------------------|
----------------------|-----------0----------|


----------------------------------------|----------------|
--0--2--0-------------------------------|--------3-------|
-----------2L---------------------------|--2-----2-------|
--------------------------------2--2----|-----0----------|
-----------------------------0----------|----------------|
----------------------------------------|----------------|


----------------------------------------|
-----------5--4--5--5-------------------|
--------------------------------6-------|
----------------------------------------|
-----------------------------0----------|
----------------------------------------|


----------------------------------------|-----------12----12------|
-----------5--4--5--5-------------------|-------------------------|
--------------------------------6-------|--------9-----9----------|
-----------------------------0----------|-------------------------|
----------------------------------------|--------------------0----|
----------------------------------------|-------------------------|


-----12---------|----------------------------------------|---------------------||
----------------|-----------5--4--5--5-------------------|-----5--2------------||
--9-------------|--------------------------------6-------|--------------------o||
-----------0----|----------------------------------------|-----------0--------o||
----------------|-----------------------------0----------|---------------------||
----------------|----------------------------------------|---------------------||


----------------------------------------|-----------12----12------|
-----------5--4--5--5-------------------|-------------------------|
--------------------------------6-------|--------9-----9----------|
-----------------------------0----------|-------------------------|
----------------------------------------|--------------------0----|
----------------------------------------|-------------------------|


-----12---------|----------||
----------------|--2-------||
--9-------------|--1-------||
-----------0----|----------||
----------------|-----0----||
----------------|----------||

Login or Register to remove this ad.