Thousand Enemies (Angel Beats!) Guitar Tab

Submitted: Oct 01, 2013 by corntastic

3.666665
Average: 3.7 (3 votes)
Download | Listen
Game: Angel Beats!
Composer(s): Jun Maeda
Style: Transcription

AutoScroll: Slow | Medium | Fast
Thousand Enemies
Angel Beats!
Jun Maeda
corntastic
29 9 2013


e--7-7-7--7-----------------------------------------7--8-7----------------
B-----------10-8-7-7-7-8----8-8--8-8-8-8-10--8--10------------------------
G-------------------------------------------------------------------------
D-------------------------------------------------------------------------
A-------------------------------------------------------------------------
E-------------------------------------------------------------------------

e-------------------------------------------------------------------------
B--8----10----8--8-10----10--8--8--7--7-----7-----------------------------
G----------------------------------------9-----7--9-----------------------
D-------------------------------------------------------------------------
A-------------------------------------------------------------------------
E-------------------------------------------------------------------------


_____________________________________________________________________________________


e--10-10-10-----10----10--10-----10----10----7-8-----8-7------------------
B-----------10----------------10----------10------10----------------------
G-------------------------------------------------------------------------
D-------------------------------------------------------------------------
A-------------------------------------------------------------------------
E-------------------------------------------------------------------------

e--10-10-10-------10----10-10-10-----10----10----7-8----8-7---------------
B-----------10-10----------------10-----------10-----10-------------------
G-------------------------------------------------------------------------
D-------------------------------------------------------------------------
A-------------------------------------------------------------------------
E-------------------------------------------------------------------------

e--10--10-------10----10-10-10-----10-------------7-8----8-7--------------
B---------10-10----------------10--------13s15s10-----10------------------
G-------------------------------------------------------------------------
D-------------------------------------------------------------------------
A-------------------------------------------------------------------------
E-------------------------------------------------------------------------


_____________________________________________________________________________________


e---------------7------------------7------------------7------------------7---------
B--8--7--8--10-------8-8-7--8--10-------7pb8r7--8--10------8-8-7--8--10-------8-8--
G----------------------------------------------------------------------------------
D----------------------------------------------------------------------------------
A----------------------------------------------------------------------------------
E----------------------------------------------------------------------------------

e------10----7------------------------------------------------------------
B--8-8----10----8--7b8----------------------------------------------------
G-------------------------------------------------------------------------
D-------------------------------------------------------------------------
A-------------------------------------------------------------------------
E-------------------------------------------------------------------------


_____________________________________________________________________________________


e--7-7-7-7-7--------------------------------------------------7--8--7-----
B------------10pb12r10--8-8-7-7--8----8-8--8-8-8-8-10--8--10--------------
G-------------------------------------------------------------------------
D-------------------------------------------------------------------------
A-------------------------------------------------------------------------
E-------------------------------------------------------------------------

e--7-7-7-7-7-7-7----------------------------------------------------------
B----------------10--8-8-7-7--8----8-8-8-8-8-8-8-10.--8.--7.--7-8---------
G-------------------------------------------------------------------------
D-------------------------------------------------------------------------
A-------------------------------------------------------------------------
E-------------------------------------------------------------------------

e-------------------------------------------------------------------------
B--8--8g10----8--8-10----10--8--8--7--7-----7-----------------------------
G----------------------------------------9-----7b9------------------------
D-------------------------------------------------------------------------
A-------------------------------------------------------------------------
E------------------------------------------------------------------------- 


_____________________________________________________________________________________


e--10-10-10-----10----10--10-----10----10----7-8----8-7-------------------
B-----------10---------------10-----------10-----10-----------------------
G-------------------------------------------------------------------------
D-------------------------------------------------------------------------
A-------------------------------------------------------------------------
E-------------------------------------------------------------------------

e--10--10-------10----10--10-----10----10----7-8----8-7-------------------
B---------10-10--------------10-----------10-----10-----------------------
G-------------------------------------------------------------------------
D-------------------------------------------------------------------------
A-------------------------------------------------------------------------
E-------------------------------------------------------------------------

e--10--10-------10----10-10-10-----10----10----7-8----8-7-----------------
B---------10-10----------------10-----------10-----10---------------------
G-------------------------------------------------------------------------
D-------------------------------------------------------------------------
A-------------------------------------------------------------------------
E-------------------------------------------------------------------------


_____________________________________________________________________________________


e---------------7------------------7-----------------7-----------------7-----------
B--8--7--8--10-------8-8-7--8--10-------8--7--8--10------8-8-7--8--10-------8-8----
G----------------------------------------------------------------------------------
D----------------------------------------------------------------------------------
A----------------------------------------------------------------------------------
E----------------------------------------------------------------------------------

e------10----7------------------------------------------------------------
B--8-8----10----8--7b8----------------------------------------------------
G-------------------------------------------------------------------------
D-------------------------------------------------------------------------
A-------------------------------------------------------------------------
E-------------------------------------------------------------------------


_____________________________________________________________________________________


e------7-------7------------7-10--8-7----------7-------7------------------
B----8---8---8------------8------------------8---8---8---------8----------
G--9-------9-----7g9----9-------------9----9-------9-----9--7-------------
D-------------------------------------------------------------------------
A-------------------------------------------------------------------------
E-------------------------------------------------------------------------

e------7-------7------------7-10--8-7----------7-------7------------------
B----8---8---8------------8------------------8---8---8-----------8--------
G--9-------9-----7g9----9-------------9----9-------9-----9--7-7-----------
D-------------------------------------------------------------------------
A-------------------------------------------------------------------------
E-------------------------------------------------------------------------


_____________________________________________________________________________________


e-------------------------------------------------------------------------
B--8--10----8--8-10----10--8--8--7--7-----7-------------------------------
G--------------------------------------9-----7---9------------------------
D-------------------------------------------------------------------------
A-------------------------------------------------------------------------
E------------------------------------------------------------------------- 

e--10-10-10-----10----10--10--------10----10----7-8----8-7----------------
B-----------10---------------10-10-----------10-----10--------------------
G-------------------------------------------------------------------------
D-------------------------------------------------------------------------
A-------------------------------------------------------------------------
E-------------------------------------------------------------------------

e--10-10-10-------10----10-10-10-----10----10----7-8----8-7---------------
B-----------10-10----------------10-----------10-----10-------------------
G-------------------------------------------------------------------------
D-------------------------------------------------------------------------
A-------------------------------------------------------------------------
E-------------------------------------------------------------------------

e--10--10-------10----10--10-----10----10----7-8----8-7-------------------
B---------10-10--------------10-----------10-----10-----------------------
G-------------------------------------------------------------------------
D-------------------------------------------------------------------------
A-------------------------------------------------------------------------
E-------------------------------------------------------------------------


_____________________________________________________________________________________


e---------------7------------------7-----------------7-----------------7-----------
B--8--7--8--10-------8-8-7--8--10-------8--7--8--10------8-8-7--8--10-------8-8----
G----------------------------------------------------------------------------------
D----------------------------------------------------------------------------------
A----------------------------------------------------------------------------------
E----------------------------------------------------------------------------------

e------10----7------------------------------------------------------------
B--8-8----10----8--7b8----------------------------------------------------
G-------------------------------------------------------------------------
D-------------------------------------------------------------------------
A-------------------------------------------------------------------------
E-------------------------------------------------------------------------

e------10----7------------------------------------------------------------
B--8-8----10----8--7b8----------------------------------------------------
G-------------------------------------------------------------------------
D-------------------------------------------------------------------------
A-------------------------------------------------------------------------
E-------------------------------------------------------------------------

e-----10----7-------------------------------------------------------------
B--8-----10----8--7b8-----------------------------------------------------
G-------------------------------------------------------------------------
D-------------------------------------------------------------------------
A-------------------------------------------------------------------------
E-------------------------------------------------------------------------

Login or Register to remove this ad.