Rain Song (Angel Beats!) Guitar Tab

Submitted: Jun 13, 2014 by corntastic (Last updated: Jul 25, 2014)

3.666665
Average: 3.7 (3 votes)
Download | Listen
Game: Angel Beats!
Composer(s): Jun Maeda
Style: Transcription

AutoScroll: Slow | Medium | Fast
Rain Song
Angel Beats!
Jun Maeda
corntastic
8 12 2013


e--------5--------0-----------------5--------0----------------------------
B-----3--------2-----------3-----3--------2-----------3-------------------
G-----------------------2--------------------------2----------------------
D--0--------------------------0-----------------4-------------------------
A-----------0--------2-----------------0----------------------------------
E------------------------------------------------------------------------- x2

______________________________________________________________________________________


e-------------------------------------------------------------------------
B--7-------7-------7-------7--10------------------------------------------
G-----9-9-----7-------9-9-------------------------------------------------
D-------------------------------------------------------------------------
A-------------------------------------------------------------------------
E-------------------------------------------------------------------------

e-------------------------------------------------------------------------
B--7-------7--------------------------------------------------------------
G-----9-9-----7----9--7--6--7---------------------------------------------
D-------------------------------------------------------------------------
A-------------------------------------------------------------------------
E-------------------------------------------------------------------------

e-------------------------------------------------------------------------
B----7-------7---------7-------7--10--------------------------------------
G--7----9-9-----7----7----9-9---------------------------------------------
D-------------------------------------------------------------------------
A-------------------------------------------------------------------------
E-------------------------------------------------------------------------

e-------------------------------------------------------------------------
B--7-------7--------------------------------------------------------------
G-----9-9-----7----9--7--6--7---------------------------------------------
D-------------------------------------------------------------------------
A-------------------------------------------------------------------------
E-------------------------------------------------------------------------

______________________________________________________________________________________


e-----------7------------9--10--------------------------------------------
B-----7-10-----10----10--------10--8-7------------------------------------
G--7----------------------------------------------------------------------
D-------------------------------------------------------------------------
A-------------------------------------------------------------------------
E-------------------------------------------------------------------------

e-----------7-------------------------------------------------------------
B-----7-10-----10----7--7--8----------------------------------------------
G--7--------------------------6--7----------------------------------------
D-------------------------------------------------------------------------
A-------------------------------------------------------------------------
E-------------------------------------------------------------------------

______________________________________________________________________________________


e-----------------8----------------------------------10-8-----------------
B-------10-8--------10--8-----------------10-8-------------11--10--8------
G--7-10------7-10----------7--10-------10---------10----------------------
D-----------------------------------10---------10-------------------------
A-------------------------------------------------------------------------
E-------------------------------------------------------------------------

e-----------------8-------------------------------------------------------
B-------10-8--------10--8-----------10--10--8-----------------------------
G--7-10------7-10----------9--10--------------10-9-10----9----------------
D-----------------------------------------------------------10------------
A-------------------------------------------------------------------------
E-------------------------------------------------------------------------

e-----------------8----------------------------------10-8-----------------
B-------10-8--------10--8-----------------10-8-------------11--10--8------
G--7-10------7-10----------7--10-------10---------10----------------------
D-----------------------------------10---------10-------------------------
A-------------------------------------------------------------------------
E-------------------------------------------------------------------------

e-----------------8-------------------------------------------------------
B-------10-8--------10--8-------------------------------------------------
G--7-10------7-10----------9--10----7----9----7----9----7-----------------
D-------------------------------------------------------------------------
A-------------------------------------------------------------------------
E-------------------------------------------------------------------------

______________________________________________________________________________________


e-------------------------------------------------------------------------
B--7--7-8-7---7------7--7-8-7---7-10--------------------------------------
G-----------9---7-------------9-------------------------------------------
D-------------------------------------------------------------------------
A-------------------------------------------------------------------------
E-------------------------------------------------------------------------

e-------------------------------------------------------------------------
B--7--8-7---7-------------------------------------------------------------
G---------9---7----7--7-9-7-6-6-7-----------------------------------------
D-------------------------------------------------------------------------
A-------------------------------------------------------------------------
E-------------------------------------------------------------------------

e-------5-----------------5-------7---------------------------------------
B--9--9---9-7-9-5----9--9---9-7-9-----------------------------------------
G-------------------------------------------------------------------------
D-------------------------------------------------------------------------
A-------------------------------------------------------------------------
E-------------------------------------------------------------------------

e-------5-----------------------------------------------------------------
B--9--9---9-7-9-5----5-----5----------------------------------------------
G-----------------------8-------------------------------------------------
D-------------------------------------------------------------------------
A-------------------------------------------------------------------------
E-------------------------------------------------------------------------

______________________________________________________________________________________


e-----------7------------9--10--------------------------------------------
B-----7-10-----10----10--------10--8-7------------------------------------
G--7----------------------------------------------------------------------
D-------------------------------------------------------------------------
A-------------------------------------------------------------------------
E-------------------------------------------------------------------------

e-----------7-------------------------------------------------------------
B-----7-10-----10----7--7--8----------------------------------------------
G--7--------------------------6--7----------------------------------------
D-------------------------------------------------------------------------
A-------------------------------------------------------------------------
E-------------------------------------------------------------------------

______________________________________________________________________________________


e-----------------8----------------------------------10-8-----------------
B-------10-8--------10--8-----------------10-8-------------11--10--8------
G--7-10------7-10----------7--10-------10---------10----------------------
D-----------------------------------10---------10-------------------------
A-------------------------------------------------------------------------
E-------------------------------------------------------------------------

e-----------------8-------------------------------------------------------
B-------10-8--------10--8-----------10--10--8-----------------------------
G--7-10------7-10----------9--10--------------10-9-10----9----------------
D-----------------------------------------------------------10------------
A-------------------------------------------------------------------------
E-------------------------------------------------------------------------

e-----------------8----------------------------------10-8-----------------
B-------10-8--------10--8-----------------10-8-------------11--10--8------
G--7-10------7-10----------7--10-------10---------10----------------------
D-----------------------------------10---------10-------------------------
A-------------------------------------------------------------------------
E-------------------------------------------------------------------------

e-----------------8-------------------------------------------------------
B-------10-8--------10--8-------------------------------------------------
G--7-10------7-10----------9--10----7----9----7----9----7*----------------
D-------------------------------------------------------------------------
A-------------------------------------------------------------------------
E-------------------------------------------------------------------------

This section play twice, but skip the last G7 the first time.
Login or Register to remove this ad.