My Soul, Your Beats! (Angel Beats!) Guitar Tab

Submitted: Jul 18, 2011 by Abdiziel

2.666665
Average: 2.7 (3 votes)
Download | Listen
Game: Angel Beats!
Composer(s): Jun Maeda
Style: 2 or more instruments, Transcription

AutoScroll: Slow | Medium | Fast
Title: My Soul, Your Beats
Album: Angel Beats! OST
Tempo = 120

Legend
L - tied note
x - dead note
h - hammer on/pull off
b - bend
s - slide
~ - vibrato
g - ghost note
> - accentuated note
t - trill
M - palm mute
. - staccato
P - popping (bass)
S - slapping (bass)
+ - tapping
W - wide vibrato
< - fade in
w - whammy bar
= - tremolo picking
v - brush up
^ - brush down
V - pick stroke up
n - pick stroke down




Guitar 1

E |-------|----------------------------|----------------------------|
B |-------|--0-----------0--3----------|----------------------------|
G |-------|----------------------------|----------------------------|
D |-------|-----4--------------0L------|--0L----------0-------------|
A |-------|--2-----2-------------------|----------------------------|
E |-------|-----------3--------2L------|--2L----------2-------------|


----------------------------|----------------------------|
--0-----------0--3----------|----------------------------|
----------------------------|----------------------------|
-----4--------------0L------|--0L----------0-------------|
--2-----2-------------------|----------------------------|
-----------3--------2L------|--2L----------2-------------|


----------------------------------------------------|-------|
--0-----------3-----------0-----3-------------------|-------|
----------------------------------------------------|-------|
--------4-------------------------------------------|-------|
--2-------------------------------------------------|-------|
--------------------3-------------------------------|-------|


----------------------------|-------|----------------------------|
--0-----3-----------0L------|--0L---|--0L----------0-------------|
--------------------2L------|--2L---|--2L----------2-------------|
-----4--------4-----0L------|--0L---|--0L----------0-------------|
--2--------2--------2L------|--2L---|--2L----------2-------------|
--------------2-------------|-------|----------------------------|


--3--3--3--3--3--3--3--3----|
--3--3--3--3--3--3--3--3----|
--0--0--0--0--0--0--0--0----|
----------------------------|
----------------------------|
----------------------------|


--3-----------------3-----------------0-------------|
--3-----------------3-----------------7-------------|
--0-----------------2-----------------4-------------|
--------------------19----------------4-------------|
----------------------------------------------------|
----------------------------------------------------|


--------10------------------------------------------|
--------12------------------------------------------|
--------14------------------------------------------|
--------12----------------------------4--2----------|
--------------------------------------------2--0----|
----------------------------------------------------|


--------------------3-------|-----------------0--2-------|
--------------0--3-----3----|-----------2--3-------------|
--------0--2----------------|--------2--------------2----|
-----0----------------------|-----0----------------------|
----------------------------|--0-------------------------|
--3-------------------------|----------------------------|


-----------------0----------|--------------------0-------|
--------0--2--3-----3--2----|--------2-----3-------------|
----------------------------|----------------------------|
-----4----------------------|-----4-----4-----4-----4----|
--2-------------------------|--2-------------------------|
----------------------------|----------------------------|


--------------------3-------|--------------------0-------|
--------------0--3----------|-----------------0-----0----|
--------0--2-----------0----|--------------0-------------|
-----0----------------------|--------2--4----------------|
----------------------------|-----2----------------------|
--3-------------------------|--0-------------------------|


--------------0-------------|-----------------2--5-------|
----------------------------|--------0--2--3-------------|
-----------2-----2----------|----------------------------|
-----2--4-----------4--2----|-----4----------------------|
----------------------------|--2-------------------------|
--2-------------------------|----------------------------|


--------------------3-------|-----------------0--2-------|
--------------0--3-----3----|-----------2--3-------------|
--------0--2----------------|--------2--------------2----|
-----0----------------------|-----0----------------------|
----------------------------|--0-------------------------|
--3-------------------------|----------------------------|


-----------------0----------|--------------------0-------|
--------0--2--3-----3--2----|--------2-----3-------------|
----------------------------|----------------------------|
-----4----------------------|-----4-----4-----4-----4----|
--2-------------------------|--2-------------------------|
----------------------------|----------------------------|


--------------------3-------|--------------------0-------|
--------------0--3----------|-----------------0-----0----|
--------0--2-----------0----|--------------0-------------|
-----0----------------------|--------2--4----------------|
----------------------------|-----2----------------------|
--3-------------------------|--0-------------------------|


----------------------------|----------------------------|
----------------------------|--------------------3-------|
-----------2--------3-------|-----------------2-----2----|
-----2--4--------4-----4----|--------0--2--4-------------|
--------------1-------------|-----0----------------------|
--2-------------------------|--0-------------------------|


----------------------------|--------------0-------------|
-----------0--3--0----------|-----------0-----0----------|
--------0-----------0-------|--------1-----------1-------|
-----0-----------------0----|-----2-----------------2----|
----------------------------|----------------------------|
--3-------------------------|--4-------------------------|


--------------2-------------|-----------------------2----|
-----------2-----2----------|--------0--3-----0--4-------|
--------3-----------3-------|----------------------------|
-----4-----------------4----|-----4--------1-------------|
--1-------------------------|--2-------------------------|
----------------------------|----------------------------|


----------------------------|----------------------------|
----------------------------|----------------------------|
-----------------2----------|-----------2-----2----------|
--------------2-----2-------|--------2-----------2-------|
--0-----0--4-----------0----|-----0--------0--------4----|
-----0----------------------|----------------------------|


----------------------------|----------------------------|
----------------------------|----------------------------|
-----------------2----------|-----------2-----2----------|
--------------2-----2-------|--------2-----------2-------|
--0-----0--4-----------0----|-----0--------0--------4----|
-----0----------------------|----------------------------|


----------------------------|----------------------------|
-----------------2----------|-----------------2----------|
--------------1-----1-------|--------------1-----1-------|
-----------2-----------2----|-----------2-----------2----|
--4-----4-------------------|--4-----4-------------------|
-----4----------------------|-----4----------------------|


----------------------------|----------------------------|
--------------0-------------|-----------0--0-------------|
----------------------------|----------------------------|
-----------4-----4-----4----|--------4--------4-----4----|
--2-----2-----------2-------|-----2--------2-----2-------|
-----2----------------------|----------------------------|


----------------------------|----------------------------|
----------------------------|----------------------------|
-----------------2----------|-----------2-----2----------|
--------------2-----2-------|--------2-----------2-------|
--0-----0--4-----------0----|-----0--------0--------4----|
-----0----------------------|----------------------------|


----------------------------|----------------------------|
----------------------------|----------------------------|
-----------------2----------|-----------2-----2----------|
--------------2-----2-------|--------2-----------2-------|
--0-----0--4-----------0----|-----0--------0--------4----|
-----0----------------------|----------------------------|


----------------------------|----------------------------|
--------------0-------------|--------------0-------------|
----------------------------|----------------------------|
-----------4-----4-----4----|-----------4-----4-----4----|
--2-----2-----------2-------|--2-----2-----------2-------|
-----2----------------------|-----2----------------------|


----------------------------|----------------------------|
--------------0-------------|--2--------------2----------|
----------------------------|-----1--------2-------------|
-----------4-----4-----4----|-----------------------2----|
--2-----2-----------2-------|--4-----4--0----------------|
-----2----------------------|--------------------4-------|


-----0--------0-------------|----------------------------|
--0--------0-----------0----|--2--------------2----------|
----------------------------|-----1--------2-------------|
--------2-----------2-------|-----------------------2----|
----------------------------|--4-----4--0----------------|
-----------------4----------|--------------------4-------|


-----0--------0-------------|----------------------------|-------||
--0--------0-----------0----|--2--------------0--2L------|--2----||
----------------------------|-----1--------------1L------|--1----||
--------2-----------2-------|--------------2-------------|-------||
----------------------------|--4-----4--0--------4L------|--4----||
-----------------4----------|----------------------------|-------||




Guitar 2

E |-----2----|--0-------------|-----------------------2----|--0-------------|
B |----------|-----3--0-------|----------------------------|-----3--0-------|
G |----------|-----------2L---|--2L----------2-------------|-----------2L---|
D |----------|----------------|----------------------------|----------------|
A |----------|-----------0L---|--0L----------0-------------|-----------0L---|
E |----------|----------------|----------------------------|----------------|


-----------------------2----|--0-----0--5----|--19-------------------2----|
----------------------------|-----3----------|----------------------------|
--2L----------2-------------|----------------|--16------------------------|
----------------------------|----------------|----------------------------|
--0L----------0-------------|----------------|--14------------------------|
----------------------------|----------------|----------------------------|


--0-------------|----------------------------|-------|
-----3-----0L---|--0L----------0-------------|-------|
--------2-------|----------------------------|-------|
-----------0L---|--0L----------0-------------|-------|
----------------|----------------------------|-------|
----------------|----------------------------|-------|


--2--2--2--2--7--7--7--7----|
--0--0--0--0--7--7--7--7----|
--------------4--4--4--4----|
----------------------------|
----------------------------|
----------------------------|


--7-----7-----------5-----5-----------------0-------|
--7-----------------5-----------------3-------------|
--4-----------------------------------2-------------|
--------------------7-------------------------------|
----------------------------------------------------|
----------------------------------------------------|


--------12----17------------------------------------|
--------10----------------0-------------------------|
----------------------------------------------------|
-----------------------------4--2-------------------|
-----------------------------------0----------------|
----------------------------------------------------|


--------------------0-------|-----0--2-------------------|
--------3--3-----2----------|--3--------3L----------3----|
-----2----------------------|----------------------------|
--4-------------------------|----------------------------|
----------------------------|----------------------------|
----------------------------|----------------------------|


----------------------------|----------------------------|-----------0----|
--------2--3-----2--3L------|--3L----------3L----3--0----|--0--2--3-------|
-----2----------------------|----------------------------|----------------|
--4-------------------------|----------------------------|----------------|
----------------------------|----------------------------|----------------|
----------------------------|----------------------------|----------------|


----------------|----------------|-------|--------------------0--0----|
-----------0----|--2-----0--0----|-------|--------3--3-----2----------|
--4-------------|-----2----------|--4----|-----2----------------------|
--5-------------|-----------4----|--4----|--4-------------------------|
--7-------------|----------------|-------|----------------------------|
----------------|----------------|-------|----------------------------|


-----0--2-------------------|----------------------------|
--3--------3L----------3----|--------2--3-----2--3L------|
----------------------------|-----2----------------------|
----------------------------|--4-------------------------|
----------------------------|----------------------------|
----------------------------|----------------------------|


----------------------------|-----------0----|----------------|--------0--2----|
--3L----------3L----3--0----|--0--2--3-------|-----------0----|--2--3----------|
----------------------------|----------------|--4-------------|----------------|
----------------------------|----------------|--5-------------|----------------|
----------------------------|----------------|--7-------------|----------------|
----------------------------|----------------|----------------|----------------|


--2-----------2-------------------------------------|
--5-----------5-------------------------------------|
--7-----------7--------11L---------11-11------------|
--7-----------7-------------------------------------|
----------------------------------------------------|
----------------------------------------------------|


--5--2-----5-----3--2-------|----------------|--0--------------0--2-------|
----------------------------|--3--------0----|-----3-----0----------------|
--4--------4----------------|--1--------7----|--3-------------------------|
----------------------------|----------------|----------------------------|
----------------------------|----------------|----------------------------|
----------------------------|----------------|----------------------------|


--2-----------11-12-14-16---|
--3-------------------------|
--4-------------------------|
----------------------------|
----------------------------|
----------------------------|


--4L-4--2-----2L-2--0-----------------4-----7L------|
--2-----------------------------------5L-5L-5L------|
--2-----2-----2-----2-------------------------------|
----------------------------------------------------|
----------------------------------------------------|
----------------------------------------------------|


--7-----4--7L----------7----|
--5-----5--5L----------5----|
----------------------------|
----------------------------|
----------------------------|
----------------------------|


--4L-4--2-----2L-2--0-----------------4-----7L------|
--2-----------------------------------5-----5L------|
--2-----2-----2-----2-------------------------------|
----------------------------------------------------|
----------------------------------------------------|
----------------------------------------------------|


--7-----4--7--------9--7L---|--7L---|
--5-----5--5-----------5L---|--5L---|
----------------------------|-------|
----------------------------|-------|
----------------------------|-------|
----------------------------|-------|


--7L----------7-----------------4-----2-----0-------|
--5L----------5-------------------------------------|
----------------------------------------------------|
----------------------------------------------------|
----------------------------------------------------|
----------------------------------------------------|


--2-----4L----------4-----------4-----2-----0-------|--2--4--7--2----|
--5-------------------------------------------------|--0-------------|
--4-------------------------------------------------|----------------|
----------------------------------------------------|--------9-------|
----------------------------------------------------|----------------|
----------------------------------------------------|----------------|


--4-----------2L-2--0-----------------4-----7L------|
--2-----------------------------------5-----5L------|
--2-----------2-----2-------------------------------|
----------------------------------------------------|
----------------------------------------------------|
----------------------------------------------------|


--7-----4--7L----------7----|
--5-----5--5L----------5----|
----------------------------|
----------------------------|
----------------------------|
----------------------------|


--4L-4--2-----2L-2--0-----------------4-----7L------|
--2-----------------------------------5-----5L------|
--2-----2-----2-----2-------------------------------|
----------------------------------------------------|
----------------------------------------------------|
----------------------------------------------------|


--7-----4--7--------9--7L---|
--5-----5--5-----------5L---|
----------------------------|
----------------------------|
----------------------------|
----------------------------|


--7L----------7L-------7L----------7--------7-------|
--5L----------5-------------------------------------|
----------------------------------------------------|
----------------------------------------------------|
----------------------------------------------------|
----------------------------------------------------|


--11-7--7-----------2--7L---|--7L----------7--------4----|--14-12-9--7L---|
----------------------------|----------------------------|----------------|
--11------------------------|----------------------------|----------------|
----------------------------|----------------------------|--16-14-11-9L---|
----------------------------|----------------------------|----------------|
----------------------------|----------------------------|----------------|


--7L----------------------7L----------------7L-7L---|
--------------------------------------------9-------|
----------------------------------------------------|
--9L----------------------9L----------------9L-9L---|
----------------------------------------------------|
----------------------------------------------------|


--7-----------12----------9-------------------------|
--19-------12L12L------12L12L------12L12L-----------|
--11----------------------------------16------------|
--9-----------14----------11----------9-------------|
-----------14L14L------14L14L------14L14L-----------|
----------------------------------------------------|


----------------------------------------------------|
--12L---------------------12----12L---12L---12L12L--|
--------------------------------------------13------|
----------------------------------------------------|
--14L---------------------14L---14----14L---14L14L--|
----------------------------------------------------|


--14----------12----------------------9L------------|--9----||
--12L------12L12L------12L12L------12L12L-----------|--12---||
--11----------------------16----------6-------------|--9----||
--------------14----------9-----------14------------|--9----||
--14L------14L14L------14L14L------14L14------------|--16---||
----------------------------------------------------|-------||
Login or Register to remove this ad.

1 comment on My Soul, Your Beats!

the midi has potential but

3

the midi has potential but the song has too many stops. of course i havnt tried playing it. the song doesnt flow well and the stops at the begining need to be filled