My Most Precious Treasure (Angel Beats!) Guitar Tab

Submitted: Nov 29, 2011 by victormon

4.875
Average: 4.9 (8 votes)
Download | Listen
Game: Angel Beats!
Composer(s): Jun Maeda
Style: Transcription

AutoScroll: Slow | Medium | Fast
Title: My Most Precious Treasure
SubTitle: Angel Beats
Artist: Jun Maeda
Arraged by victormon
Tempo = 120

http://www.youtube.com/watch?v=BsDa5fvS7to&feature=related

Legend
L - tied note
x - dead note
h - hammer on/pull off
b - bend
s - slide
~ - vibrato
g - ghost note
> - accentuated note
t - trill
M - palm mute
. - staccato
P - popping (bass)
S - slapping (bass)
+ - tapping
W - wide vibrato
< - fade in
w - whammy bar
= - tremolo picking
v - brush up
^ - brush down
V - pick stroke up
n - pick stroke down

     ^                            ^                          
E ||-1--------------1----------|--1--------------1----------|
B ||-1--------1----------------|--1-----1--1----------------|
G ||o3-------------------------|--0-------------------------|
D ||o3-----3-------------------|--2-------------------------|
A ||-1-------------------------|--3-------------------------|
E ||---------------------------|----------------------------|

  ^                            ^     ^        ^           
--1--------------1----------|--1-----1--1-----1----------|
--1--------1----------------|--1-----1--1-----1----------|
--2-------------------------|--2-----3--3-----2----------|
--2-----2-------------------|--3-----3--3-----3----------|
--0-------------------------|--3-----1--1-----3----------|
----------------------------|----------------------------|

  ^                            ^                          
--1--------------1----------|--1--------------1----------|
--1--------1----------------|--1-----1--1----------------|
--3-------------------------|--0-------------------------|
--3-----3-------------------|--2-------------------------|
--1-------------------------|--3-------------------------|
----------------------------|----------------------------|

  ^                            ^  ^                                  
--1-------------------------|--1--1----|----------------------------|
--3--------3----------------|--3--1----|----------------------------|
--2-----2--------2----------|--2--3----|--------2--3--5s----3--5s---|
--0-----------------0-------|--0--3----|----------------------------|
----------------------------|-----1----|--1-------------------------|
----------------------------|----------|----------------------------|

                                                          
----------------------------|----------------------------|
-----------------1----------|--------------1--------1----|
-----2--0-----------0-------|--------2--3--------3-------|
-----------3----------------|----------------------------|
--3-------------------------|--0-------------------------|
----------------------------|----------------------------|

                    ^          ^                          
--------1-----------3-------|--1-------------------------|
-----------1--------3-------|--1-----------1--------1----|
--------2-----------5-------|--3-----2--3--------3-------|
-----3--------------5-------|--3-------------------------|
--------------------3-------|--1-------------------------|
--1-------------------------|----------------------------|

                               ^        ^                 
----------------------------|--1--------1L----------1----|
-----------------1----------|--3--------2L----------2----|
-----2--0-----------0-------|--2--------2L----------2----|
-----------3----------------|--0-------------------------|
--3-------------------------|----------------------------|
----------------------------|----------------------------|

                                                          
----------------------------|-----------------0-----1----|
----------------------------|--1--------1----------------|
-----------------2--3--2----|----------------------------|
--4--------5--4-------------|--------3-----------3-------|
--5-------------------------|--1-------------------------|
----------------------------|----------------------------|

                                                          
-----------1-----3-----5----|-----6-----5----------------|
-----1----------------------|-----------------6----------|
----------------------------|-----------------------5L---|
--------------------3-------|--------3-----------3-------|
----------------------------|----------------------------|
--1-------------------------|--6-------------------------|

                                                          
-----------------5--6-------|--8-------------------------|
-----6--6-------------------|--6-----8--6----------------|
--5-------------------------|--5--------------7-----5L---|
----------------------------|--7-------------------------|
----------------------------|----------------------------|
----------------------------|----------------------------|

                                                          
-----------5-----5--6-------|--8-------------------------|
-----6--6-------------------|--------8--6-----4-----6----|
--5-----------5-------------|----------------------------|
----------------------------|----------------------------|
--5-------------------------|-----6--------------6-------|
----------------------------|----------------------------|

                                                          
-----5--6--3-----5--6-------|--1-------------------------|
-----------3----------------|--1-----------1-------------|
-----------5----------------|--3--------------3----------|
-----------5----------------|--3--------3--------3-------|
----------------------------|--1-------------------------|
--6-------------------------|----------------------------|

                                                          
----------------------------|----------------------------|
--------------1-------------|-----------1----------------|
-----------------3----------|-----3--------3-----3-------|
--3--------3--------3-------|--------3--------3-----3----|
-----1----------------------|--1-------------------------|
----------------------------|----------------------------|

  ^           ^                ^                          
--1-----------3--5-----4----|--5--------------5-----7----|
--1-----------3-------------|--5--5----------------------|
--3-----------5-------------|--7--------7----------------|
--3-----------5-------------|--7-------------------------|
--1-----------3-------------|--7-------------------------|
----------------------------|----------------------------|

  ^                            ^                          
-----9-----------5-----4----|--5--------------5-----7----|
--5-------------------------|--5--5----------------------|
--7-------------------------|--4--------7----------------|
--7-------------------------|--6-------------------------|
--5-------------------------|----------------------------|
----------------------------|----------------------------|

  ^                            ^                          
-----9-----------5-----4----|--5--------------5-----7----|
--5-------------------------|--5--5----------------------|
--7-------------------------|--7--------7----------------|
--7-------------------------|--7-------------------------|
----------------------------|--7-------------------------|
----------------------------|----------------------------|

  ^                                                       
-----9--------5--7-----5L---|--5-------------------------|
--5-------------------------|-----5----------------------|
--7-------------------------|-----------6-----4-----4L---|
--7-------------------------|----------------------------|
--5-------------------------|----------------------------|
----------------------------|----------------------------|

                               ^                          
-----------------5-----4----|--5--------------5-----7----|
----------------------------|--5--5----------------------|
--4--2s-2-------------------|--7--------7----------------|
----------------------------|--7-------------------------|
----------------------------|--7-------------------------|
----------------------------|----------------------------|

  ^                            ^                          
-----9-----------5-----4----|--5--------------5-----7----|
--5-------------------------|--5--5----------------------|
--7-------------------------|--4--------7----------------|
--7-------------------------|--6-------------------------|
--5-------------------------|----------------------------|
----------------------------|----------------------------|

  ^                            ^                          
-----9s-5--------5-----4----|--5--------------5-----7----|
--5-------------------------|--5--5----------------------|
--7-------------------------|--7--------7----------------|
--7-------------------------|--7-------------------------|
----------------------------|--7-------------------------|
----------------------------|----------------------------|

  ^                                                       
-----9--------5--7-----5L---|--5-------------------------|
--5-------------------------|-----5----------------------|
--7-------------------------|-----------6-----4-----4L---|
--7-------------------------|----------------------------|
--5-------------------------|----------------------------|
----------------------------|----------------------------|

                                                           
---------------------------||----------------------------||
---------------------------||----------------------------||
--4--2s-2-----------------o||--4g-2s-2--------2s----1----||
--------------------------o||----------------------------||
---------------------------||----------------------------||
---------------------------||----------------------------||

                                                                                
--------------------------------------------------------------------------------
--------------------------------------------------------------------------------
o2--------------------------------------------------------------2---------------
o------------------------0h-2-----------0---------------------------------------
-0------------------------------------------------------------------------------
--------------------------------------------------------------------------------

                                                    
----------------------|----------------------------|
----------------------|-----2----------------------|
--------4L------------|--4--------------2s----1----|
----------------------|--0-------------------------|
----------------------|----------------------------|
----------------------|----------------------------|

                                                          
----------------------------|----------------------------|
----------------------------|-----2----------------------|
--2--------------2-----4L---|--4--------------2s----1----|
--------2h-0----------------|--0-------------------------|
----------------------------|----------------------------|
--0-------------------------|----------------------------|

                                                                                
--------------------------------------------------------------------------------
--------------------------------------------------------------------------------
--2--------------------------------------------------------------2--------------
--------------------------0h-2-----------0--------------------------------------
--0-----------------------------------------------------------------------------
--------------------------------------------------------------------------------

                        
-----------------------|
-----------------------|
---------4L------------|
-----------------------|
-----------------------|
-----------------------|

                                                                                
--------------------------------------------------------------------------------
--------------2-----------------------------------------------------------------
--4-----------------------------------------------------------2-----------2h-4--
--0-----------------------------------------------------------------------------
--------------------------------------------------------------------------------
--------------------------------------------------------------------------------

                                                                      
-----------------------|----------------|---------------------------||
-----------------------|----------------|---------------------------||
-----------------------|--2-------------|-----------------2s----1--o||
-----------------------|-----2--0-------|--------------------------o||
-----------------------|-----------4----|--2-----0--0---------------||
-----------------------|--0-------------|---------------------------||

                                                          
----------------------------|-----------------5-----4----|
----------------------------|----------------------------|
----------------------------|----------------------------|
----------------------------|----------------------------|
--2-----0--0----------------|----------------------------|
----------------------------|----------------------------|

  ^                            ^                          
--5--------------5-----7----|-----9-----------5-----4----|
--5--5----------------------|--5-------------------------|
--7--------7----------------|--7-------------------------|
--7-------------------------|--7-------------------------|
--7-------------------------|--5-------------------------|
----------------------------|----------------------------|

  ^                            ^                          
--5--------------5-----7----|-----9-----------5-----4----|
--5--5----------------------|--5-------------------------|
--4--------7----------------|--7-------------------------|
--6-------------------------|--7-------------------------|
----------------------------|----------------------------|
----------------------------|----------------------------|

  ^                            ^                                           
--5--------------5-----7----|-----9-----5--7-----5-------|----------------|
--5--5----------------------|--5-------------------------|--5-------------|
--7--------7----------------|--7-------------------------|-----6--4--4----|
--7-------------------------|--7-------------------------|----------------|
--7-------------------------|--5-------------------------|----------------|
----------------------------|----------------------------|----------------|

                               ^                          
-----------------5-----4----|--5--------------5-----7----|
----------------------------|--5--5----------------------|
--2s-2----------------------|--7--------7----------------|
----------------------------|--7-------------------------|
----------------------------|--7-------------------------|
----------------------------|----------------------------|

  ^                            ^                          
-----9-----------5-----4----|--5--------------5-----7----|
--5-------------------------|--5--5----------------------|
--7-------------------------|--4--------7----------------|
--7-------------------------|--6-------------------------|
--5-------------------------|----------------------------|
----------------------------|----------------------------|

  ^                            ^                          
-----9s-5--------5-----4----|--5--------------5-----7----|
--5-------------------------|--5--5----------------------|
--7-------------------------|--7--------7----------------|
--7-------------------------|--7-------------------------|
----------------------------|--7-------------------------|
----------------------------|----------------------------|

  ^                                                       
-----9--------5--7-----5L---|--5-------------------------|
--5-------------------------|-----5----------------------|
--7-------------------------|-----------6-----4-----4L---|
--7-------------------------|----------------------------|
--5-------------------------|----------------------------|
----------------------------|----------------------------|

                               ^                          
-----------------6-----5----|--6--------------6-----8----|
----------------------------|--6--6----------------------|
--4--2s-2-------------------|--8--------8----------------|
----------------------------|--8-------------------------|
----------------------------|--8-------------------------|
----------------------------|----------------------------|

  ^                            ^                          
-----10----------6-----5----|--6--------------6-----8----|
--6-------------------------|--6--6----------------------|
--8-------------------------|--5--------8----------------|
--8-------------------------|--7-------------------------|
--6-------------------------|----------------------------|
----------------------------|----------------------------|

  ^                            ^                          
-----10----------6-----5----|--6--------------6-----8----|
--6-------------------------|--6--6----------------------|
--8-------------------------|--8--------8----------------|
--8-------------------------|--8-------------------------|
----------------------------|--8-------------------------|
----------------------------|----------------------------|

  ^                                                                        
-----10----6--8-----6-------|----------------|-----------------6-----5----|
--6-------------------------|--6-------------|----------------------------|
--8-------------------------|-----7--5--5----|--3s-3----------------------|
--8-------------------------|----------------|----------------------------|
--6-------------------------|----------------|----------------------------|
----------------------------|----------------|----------------------------|

  ^                            ^                          
--6--------------6-----8----|-----10----------6-----5----|
--6--6----------------------|--6-------------------------|
--8--------8----------------|--8-------------------------|
--8-------------------------|--8-------------------------|
--8-------------------------|--6-------------------------|
----------------------------|----------------------------|

  ^                            ^                          
--6--------------6-----8----|-----10s6--------6-----5----|
--6--6----------------------|--6-------------------------|
--5--------8----------------|--8-------------------------|
--7-------------------------|--8-------------------------|
----------------------------|----------------------------|
----------------------------|----------------------------|

  ^                            ^
--6--------------6-----8----|-----10-------6--8-----6L---|
--6--6----------------------|--6-------------------------|
--8--------8----------------|--8-------------------------|
--8-------------------------|--8-------------------------|
--8-------------------------|--6-------------------------|
----------------------------|----------------------------|


--6-------------------------|----------------------------||
-----6----------------------|----------------------------||
-----------7-----5-----5L---|--5--3s-3--------3s----2----||
----------------------------|----------------------------||
----------------------------|----------------------------||
----------------------------|----------------------------||


--------------------------------------------------------------------------------
--------------------------------------------------------------------------------
o3--------------------------------------------------------------3---------------
o------------------------1h-3-----------1---------------------------------------
-1------------------------------------------------------------------------------
--------------------------------------------------------------------------------


----------------------|----------------------------|
----------------------|-----3----------------------|
--------5L------------|--5--------------3s----2----|
----------------------|--1-------------------------|
----------------------|----------------------------|
----------------------|----------------------------|


----------------------------|----------------------------|
----------------------------|-----3----------------------|
--3--------------3-----5L---|--5--------------3s----2----|
--------3h-1----------------|--1-------------------------|
----------------------------|----------------------------|
--1-------------------------|----------------------------|


--------------------------------------------------------------------------------
--------------------------------------------------------------------------------
--3--------------------------------------------------------------3--------------
--------------------------1h-3-----------1--------------------------------------
--1-----------------------------------------------------------------------------
--------------------------------------------------------------------------------


-----------------------|
-----------------------|
---------5L------------|
-----------------------|
-----------------------|
-----------------------|


--------------------------------------------------------------------------------
--------------3-----------------------------------------------------------------
--5-----------------------------------------------------------3-----------3h-5--
--1-----------------------------------------------------------------------------
--------------------------------------------------------------------------------
--------------------------------------------------------------------------------


-----------------------|----------------|---------------------------||
-----------------------|----------------|---------------------------||
-----------------------|--3-------------|-----------------3s----2--o||
-----------------------|-----3--1-------|--------------------------o||
-----------------------|-----------5----|--3-----1--1---------------||
-----------------------|--1-------------|---------------------------||


----------------------------|-----------------------8L---|
-----------------11s---10---|--11-------------11---------|
----------------------------|--------10s8----------------|
----------------------------|----------------------------|
--3-----1--1----------------|----------------------------|
----------------------------|----------------------------|


--8--10---------------------|-----------------------8L---|
-----------------11s---10---|--11-------------11---------|
----------------------------|--------10s8----------------|
----------------------------|----------------------------|
----------------------------|----------------------------|
----------------------------|----------------------------|


--8--10---------------------|-----------------------8L---|
-----------------11s---10---|--11-------------11---------|
----------------------------|--------10s8----------------|
----------------------------|----------------------------|
----------------------------|----------------------------|
----------------------------|----------------------------|


--8--10---------------------|----------------|----------------------------|
-----------------11s---13---|--11------------|-----------------------13s--|
----------------------------|-----10-8-------|----------------------------|
----------------------------|-----------12---|--10----8--8----------------|
----------------------------|----------------|----------------------------|
----------------------------|----------------|----------------------------|


----------------|----------------------------|----------------|
--11------------|-----------------------13s--|--11------------|
-----10-8-------|----------------------------|-----10-8-------|
-----------12---|--10----8--8----------------|-----------12---|
----------------|----------------------------|----------------|
----------------|----------------------------|----------------|


----------------------------|-------||
----------------------------|-------||
----------------------------|-------||
--10----8--8L----------8L---|--8----||
----------------------------|-------||
----------------------------|-------||
Login or Register to remove this ad.

2 comments on My Most Precious Treasure

These memories... Man-tears

5

These memories... Man-tears have been shed. Thank you for this tab

this is great man! i love

5

this is great man! i love this song so much! good job!