Brave Song (Angel Beats!) Guitar Tab

Submitted: Oct 13, 2014 by RaisonDetrah

5
Average: 5 (4 votes)
Download | Listen
Game: Angel Beats!
Composer(s): Jun Maeda
Style: Arrangement, Fingerstyle, Natural harmonics

AutoScroll: Slow | Medium | Fast
Title: Brave Song
SubTitle: Angel Beats!
Artist: Maeda Jun
Album: Tabbed by RaisonDetrah
Tempo = 120
ƒgƒ‰ƒbƒN 1

Legend
L - tied note
x - dead note
h - hammer on/pull off
b - bend
s - slide
~ - vibrato
g - ghost note
> - accentuated note
NH - natural harmonic
t - trill
M - palm mute
. - staccato
P - popping (bass)
S - slapping (bass)
+ - tapping
W - wide vibrato
< - fade in
w - whammy bar
= - tremolo picking
v - brush up
^ - brush down
V - pick stroke up
n - pick stroke down

Tuning: EADGCE
Capo 3

E |-----------3----------------|-----------3----------------|
C |--0-----0-----2-----0--2----|--------0--0--------2-------|
G |-----0----------------------|-----0----------------------|
D |----------------------------|----------------------------|
A |--3-------------------------|--2-------------------------|
E |----------------------------|----------------------------|


--0--------0L-0--1-----0----|-----------3----------------|
--------0-------------------|--------0-----------2-------|
-----0----------------------|-----0----------------------|
----------------------------|----------------------------|
--0-------------------------|----------------------------|
----------------------------|--1-------------------------|


--0--------0L-0--1-----0----|-----------3----------------|
--------0-------------------|--------0--------0--2-------|
-----0----------------------|-----0----------------------|
----------------------------|----------------------------|
----------------------------|----------------------------|
--0-------------------------|--3-------------------------|


--0-----------0--1-----0----|--------------------3-------|
--0-------------------------|--------0--------0----------|
--0-------------------------|--------2-------------------|
----------------------------|--------3-----3-------------|
--0-------------------------|----------------------------|
----------------------------|--1-------------------------|


-----------3----------------|-----------3----------------|
--0-----0-----2-----0--2----|--------0--0--------2-------|
-----0----------------------|-----0----------------------|
----------------------------|----------------------------|
--3-------------------------|--2-------------------------|
----------------------------|----------------------------|


--0--------0L-0--1-----0----|-----------3----------------|
--------0-------------------|--------0-----------2-------|
-----0----------------------|-----0----------------------|
----------------------------|----------------------------|
--0-------------------------|----------------------------|
----------------------------|--1-------------------------|


--0--------0L-0--1-----0----|-----------3----------------|
--------0-------------------|--------0--------0--2-------|
-----0----------------------|-----0----------------------|
----------------------------|--0-------------------------|
----------------------------|----------------------------|
--0-------------------------|----------------------------|


-----------3----------------|----------------------------|
--0-----0--------0----------|--------0--------------0----|
-----0--------------0-------|--0--------0-----0--4-------|
----------------------------|--2--2----------------------|
--3-------------------------|----------------------------|
----------------------------|--3-------------------------|


----------------------------|----------------------------|
----------------------------|----------------------------|
-----------0--------2-------|--0-----2--0L-0-----0L-0L---|
-----3--2-------------------|-----2----------------------|
----------------------------|----------------------------|
--1-------------------------|--3-------------------------|


----------------------------|----------------------------|
--------0-----------0-------|--------0--------------0L---|
--0--------0L-0--4-----0----|--0--------0-----0--4-------|
-----2----------------------|--2--2----------------------|
--3-------------------------|----------------------------|
----------------------------|--3-------------------------|


----------------------------|----------------------------|
--0-------------------------|-----------2--------2--0----|
-----0-----0--------2-------|--0-----0-------------------|
--------2-------------------|-----0----------------------|
----------------------------|----------------------------|
--1-------------------------|--3-------------------------|


----------------------------|----------------------------|-------|
--------2--0--------0-------|--------0--2L----------2L---|--2----|
-----------------4-----0----|-----0-----0L----------0L---|--0----|
-----2----------------------|--0--------0L----------0L---|--0----|
--3-------------------------|----------------------------|-------|
----------------------------|----------------------------|-------|


--3--------3----------------|----------------------------|
--0-----0-----0-------------|--2-----2--0--------0--2----|
--0--0----------------------|-----0----------------------|
----------------------------|----------------------------|
--0-------------------------|--0-------------------------|
----------------------------|----------------------------|


--0-----1--0----------------|----------------------------|
-----------0-----0----------|--0--------0-----2----------|
--------0-------------------|--0-----4--------0----------|
-----2----------------------|--0--0-----------0----------|
----------------------------|----------------------------|
--1-------------------------|--3-------------------------|


--0-----------------0-------|----------------------------|
--------------2--------0L---|--0-------------------------|
-----------0----------------|-----0-----------0-----0----|
-----0--2-------------------|-----0--------------3-------|
--0-------------------------|----------------------------|
----------------------------|--3-------------------------|


----------------------------|----------------------------|
-----------------------0----|-----------0-----2----------|
--------------0--4----------|-----4----------------------|
-----------0----------------|----------------------------|
-----0--3-------------------|--------2-----3-------------|
--1-------------------------|--3-------------------------|


--5--------5--7-----8-------|-----------------0----------|
--0-----0--------------7L---|--7--5--------------2--0L---|
--2--2----------------------|-----5----------------------|
----------------------------|-----7----------------------|
--0-------------------------|--0-------------------------|
----------------------------|----------------------------|


----------------------------|----------------------------|
--0--------0--0--------0L---|--0--------0----------------|
-----------------4--0-------|-----4--0-----------7-------|
--------3-------------------|----------------------------|
-----3----------------------|----------------------------|
--1-------------------------|--3-----------3-------------|


-----------------3----------|----------------------------|
--3--------3----------------|--2-----3-------------------|
--------5-------------------|-----------3-----0----------|
-----6----------------------|-----------------------3L---|
----------------------------|--1-----------1-------------|
--4-----------4-------------|----------------------------|


--------------0--------3L---|--3-------------------------|
--------0--------0----------|-----0-----------0-----0----|
--------0-----------0-------|-----------0----------------|
--3-----2-------------------|----------------------------|
----------------------------|----------------------------|
--1-------------------------|-----------------------1----|


----------------------------|--6-------------------------|
--3--------3--------7-------|----------------------------|
--------5-------------------|--------10-7-----------0----|
-----6----------------------|-----------------8----------|
----------------------------|----------------------------|
--4-----------4-------------|--6-----------6-------------|

           NH
----------------------------||
-----------12L---------12---||
-----------12L---------12---||
----------------------------||
----------------------------||
--8-------------------------||

Login or Register to remove this ad.

2 comments on Brave Song

Pretty awesome =)

5

Pretty awesome =)

rocket chair

rocket chair