Alchemy (Angel Beats!) Guitar Tab

Submitted: Oct 18, 2013 by corntastic

3.75
Average: 3.8 (4 votes)
Download | Listen
Game: Angel Beats!
Composer(s): Jun Maeda
Style: Transcription

AutoScroll: Slow | Medium | Fast
Alchemy
Angel Beats!
Jun Maeda
corntastic
14 10 2013

e-------------------------------------------------------------------------
B-----------8--------------------8--------9b11-8--------------------------
G----7-8-10---10-8--------7-8-10---10-8-7---------------------------------
D--8---------------8----8-------------------------------------------------
A-------------------------------------------------------------------------
E-------------------------------------------------------------------------

e-------------------------------------------------------------------------
B--8---------8--8*----8--8------------------------------------------------
G----10-8-10--------8-----------------------------------------------------
D-------------------------------------------------------------------------
A-------------------------------------------------------------------------
E-------------------------------------------------------------------------

e-------------------------------------------------------------------------
B--8---------11-11-------------8------------------------------------------
G----10-8-10--------8-10-10------10-8-7-8-8-7-------7-8-10----------------
D---------------------------------------------10-10-----------------------
A-------------------------------------------------------------------------
E-------------------------------------------------------------------------

Play until that *, then repeat
____________________________________________________________________________________


e-------------------------------------------------------------------------
B--8--6-------------------------------------------------------------------
G--------9--7--9--7-9--9------5-5-5-5----5-5-7-5--------------------------
D---------------------------5----------5----------------------------------
A-------------------------------------------------------------------------
E-------------------------------------------------------------------------

e-------------------------------------------------------------------------
B--8--6-------------------------------5---5-5b6--8------------------------
G--------9--7--9--7-9--9------5-5-7-5---7---------------------------------
D---------------------------5---------------------------------------------
A-------------------------------------------------------------------------
E-------------------------------------------------------------------------

____________________________________________________________________________________


e-------------------8---8-9-8--------------------------------------------------
B--11----11-9---------9-------9-----------11----11-9---------------------------
G-----10------11-10--------------11-10-------10------11---11-10----10----8-----
D---------------------------------------------------------------11----11---11--
A------------------------------------------------------------------------------
E------------------------------------------------------------------------------

e-------------------------------------------------------------------------
B-------------------------------------------------------------------------
G--8----------------------------------------------------------------------
D----11-10-11L------------------------------------------------------------
A-------------------------------------------------------------------------
E-------------------------------------------------------------------------

play this ^ whole part twice, then repeat the entire thing and on the last time, continue with this:

e-------------------------------------------------------------------------
B-------------------------------------------------------------------------
G--------------15---------------------------------------------------------
D--13----15--------15s13--------------------------------------------------
A-------------------------------------------------------------------------
E-------------------------------------------------------------------------
____________________________________________________________________________________


e-------------------------------------------------------------------------
B--8--6-------------------------------------------------------------------
G--------9--7--9--7-9--9------5-5-5-5----5-5-7-5--------------------------
D---------------------------5----------5----------------------------------
A-------------------------------------------------------------------------
E-------------------------------------------------------------------------

e-------------------------------------------------------------------------
B--8--6-------------------------------5---5b6--8--------------------------
G--------9--7--9--7-9--9------5-5-7-5---7---------------------------------
D---------------------------5---------------------------------------------
A-------------------------------------------------------------------------
E-------------------------------------------------------------------------

____________________________________________________________________________________


e-------------------8---8-9-8--------------------------------------------------
B--11----11-9---------9-------9-----------11----11-9---------------------------
G-----10------11-10--------------11-10-------10------11---11-10----10----8-----
D---------------------------------------------------------------11----11---11--
A------------------------------------------------------------------------------
E------------------------------------------------------------------------------

e-------------------------------------------------------------------------
B-------------------------------------------------------------------------
G--8----------------------------------------------------------------------
D----11-10-11-------------------------------------------------------------
A-------------------------------------------------------------------------
E-------------------------------------------------------------------------

e-------------------8---8-9-8--------------------------------------------------
B--11----11-9---------9-------9-----------11----11-9---------------------------
G-----10------11-10--------------11-10-------10------11---11-10----10----8-----
D---------------------------------------------------------------11----11---11--
A------------------------------------------------------------------------------
E------------------------------------------------------------------------------

e--11---------------------------------------------------------------------
B------14-13-14-----------------------------------------------------------
G-------------------------------------------------------------------------
D-------------------------------------------------------------------------
A-------------------------------------------------------------------------
E------------------------------------------------------------------------- x 4
Login or Register to remove this ad.