23:50 (Angel Beats!) Guitar Tab

Submitted: Oct 29, 2013 by corntastic

2.333335
Average: 2.3 (3 votes)
Download | Listen
Game: Angel Beats!
Composer(s): Jun Maeda
Style: Transcription

AutoScroll: Slow | Medium | Fast
23:50
Angel Beats! 
Jun Maeda, LiSa
corntastic 
27 10 2013

e-------------------------------------------------------------------------
B--6-7-6-7--6-------------------------------------------------------------
G--------------5--------5--6-5--------------------------------------------
D-----------------8--6----------8-6---------------------------------------
A------------------------------------8-9----------------------------------
E-------------------------------------------------------------------------

e-------------------------------------------------------------------------
B--6-7-6-7--6-------------------------------------------------------------
G--------------5--------5--6-5-------5-6----------------------------------
D-----------------8--6----------8-6---------------------------------------
A-------------------------------------------------------------------------
E-------------------------------------------------------------------------

______________________________________________________________________________________x2


e--4-------4--6--8----4-------4--6----------------------------------------
B-----7------------------7----------7-------------------------------------
G-------6------------------6----------------------------------------------
D-------------------------------------------------------------------------
A-------------------------------------------------------------------------
E-------------------------------------------------------------------------

e--4-------4--6--8----8-9-9-----------------------------------------------
B-----7------------------------9-7-6-7------------------------------------
G-------6-----------------------------------------------------------------
D-------------------------------------------------------------------------
A-------------------------------------------------------------------------
E-------------------------------------------------------------------------

repeat everything only the first time
______________________________________________________________________________________


e--6--5-----8--6----6--8--10--8-------------------------------------------
B--------6-----------------------11--10s11--------------------------------
G-------------------------------------------------------------------------
D-------------------------------------------------------------------------
A-------------------------------------------------------------------------
E-------------------------------------------------------------------------

e--6--5-----8-------------------------------------------------------------
B--------6-----6----6--8--6-----------------------------------------------
G------------------------------8----7-------------------------------------
D-------------------------------------------------------------------------
A-------------------------------------------------------------------------
E-------------------------------------------------------------------------

e--6--5-----8--6----6--8--10--8------10-----------------------------------
B--------6-----------------------11---------------------------------------
G-------------------------------------------------------------------------
D-------------------------------------------------------------------------
A-------------------------------------------------------------------------
E-------------------------------------------------------------------------

e--5--5--6--8--6-------------------------5Ls6-6-------8--6----------------
B-------------------6-----6---------6-------------------------------------
G----------------------8-------8------------------------------------------
D-------------------------------------------------------------------------
A-------------------------------------------------------------------------
E-------------------------------------------------------------------------

e--8-10--6----------------------------5-----------------------------------
B----------6--------8--6---------6----------------------------------------
G---------------------------8---------------------------------------------
D-------------------------------------------------------------------------
A-------------------------------------------------------------------------
E-------------------------------------------------------------------------

and repeat everything again!
Login or Register to remove this ad.