Ads

The Exit Cannot Be Found (Amagi Brilliant Park) Guitar Tab

Submitted: Jan 05, 2015 by scarecrowlol

5
Average: 5 (3 votes)
Download | Listen
Game: Amagi Brilliant Park
Composer(s): Shinkichi Mitsumune
Style: Arrangement, Fingerstyle

This song is also called Deguchi ga Mitsukara Nai!, 出口が見つからない!

AutoScroll: Slow | Medium | Fast
Title: The Exit Cannot Be Found
SubTitle: Amagi Brilliant Park
Artist: Shinkichi Mitsumune, Nao Tokisawa, Masanori Takumi
Tabber: Mitch Jackson
Tempo = 145
T/S = 3/4
           
The section where the chorus riff steps up a couple of semi tones is a little tricky at first but possible
with practice.
There is an alternate version in the download file thats slightly harder with a slightly different tuning



   ♪♫•*¨*•.¸¸ CAPO 3 ¸¸.•*¨*•♫♪


     Q     E  E  E  E       Q     Q     Q          Q     E  E  E  E       E  E  Q     Q
E |--------------0--3----|--2-------------------|--0-----------0--3----|--7--5--2-------------|
B |-----------1----------|--------3-------------|-----------1----------|--------------3-------|
G |--------2-------------|--------------2-------|--------2-------------|----------------------|
D |--------2-------------|--------0-------------|--------2-------------|--------0-------------|
A |--0-------------------|--0-------------------|--0-------------------|--3-------------------|
D |----------------------|----------------------|----------------------|----------------------|


     Q     E  E  E  E       Q     Q     Q          Q     E  E  E  E       E  E  Q     Q
  |--0-----------0--3----|--2-------------------|--0-----------0--3----|--7--5--2-------------|
  |-----------1----------|--------3-------------|-----------1----------|--------------3-------|
  |--------2-------------|--------------2-------|--------2-------------|----------------------|
  |--------2-------------|--------0-------------|--------2-------------|--------0-------------|
  |--0-------------------|--0-------------------|--0-------------------|--3-------------------|
  |----------------------|----------------------|----------------------|----------------------|

        
     Q     E  E  E  E       Q     Q     Q          Q     E  E  E  E       E  E  Q     Q 
  |--------------3--6----|--5-------------------|--3-----------3--6----|--10-8--5-------------|
  |--4--------4----------|--------6-------------|-----------4----------|--------------6-------|
  |--------5-------------|--------------5-------|--------5-------------|----------------------|
  |--------5-------------|--------3-------------|--------5-------------|--------3-------------|
  |--3-------------------|--3-------------------|--3-------------------|--6-------------------|
  |----------------------|----------------------|----------------------|----------------------|


     Q     E  E  E  E       Q     Q     Q          Q     E  E  E  E       E  E  Q     Q 
  |--3-----------3--6----|--5-------------------|--3-----------3--6----|--10-8--5-------------|
  |-----------4----------|--------6-------------|-----------4----------|--------------6-------|
  |--------5-------------|--------------5-------|--------5-------------|----------------------|
  |--------5-------------|--------3-------------|--------5-------------|--------3-------------|
  |--3-------------------|--3-------------------|--3-------------------|--6-------------------|
  |----------------------|----------------------|----------------------|----------------------|
                                                             
 
      Q     E  E  E  E       Q     Q     Q          Q     E  E  E  E       E  E  Q     Q
  ||--0-----------0--3----|--2-------------------|--0-----------0--3----|--7--5--2-------------||
  ||-----------1----------|--------3-------------|-----------1----------|--------------3-------||
  ||o-------2-------------|--------------2-------|--------2-------------|---------------------o||
  ||o-------2-------------|--------0-------------|--------2-------------|--------0------------o||
  ||--0-------------------|--0-------------------|--0-------------------|--3-------------------||
  ||----------------------|----------------------|----------------------|----------------------||

                                                                          ^
     Q.       Q.            Q     E  Q     E       Q     E  Q.            Q     Q     Q
  |--0-------------------|----------------------|----------------------|----------------------|
  |--1--------1----------|--3-------------------|--1--------1----------|--0-----1-----3-------|
  |--4--------0----------|--2-------------------|--0--------0----------|--0-------------------|
  |--2--------2----------|--4-----2--4-----2----|--------2-------------|--0-------------------|
  |--0-------------------|--0-------------------|--0-------------------|----------------------|
  |----------------------|----------------------|----------------------|--2-------------------|

                                                   
     Q     E  Q.            Q     E  Q.            Q     E  Q.            Q     E  Q     E
  |----------------------|----------------------|----------------------|----------------------|
  |-----------1----------|--0--------3----------|-----------1----------|--0--------3----------|
  |--2-------------------|--0-------------------|--2-------------------|--0-------------------|
  |--3-------------------|--------0-------------|-----------2----------|--------0--------0----|
  |--------0-------------|----------------------|--------3-------------|----------------------|
  |--0-------------------|--2-------------------|--3-------------------|--5-------------------|

                                                                          ^
     Q.       Q.            Q     E  Q     E       Q     E  Q.            Q     Q     Q
  |--0--------0----------|----------------------|----------------------|----------------------|
  |--1--------1----------|--3--------3----------|--1--------1----------|--0-----1-----3-------|
  |--4--------2----------|--2--------2----------|--0--------0----------|--0-------------------|
  |--2-------------------|--4-----2--------2----|--------2-------------|--0-------------------|
  |--0-------------------|--0-------------------|--0-------------------|----------------------|
  |----------------------|----------------------|----------------------|--2-------------------|

                                                                          ^   
     Q     E  Q.            Q     E  Q.            Q     E  Q.            Q     E  Q.
  |----------------------|----------------------|----------------------|----------------------|
  |-----------1----------|--0--------3----------|-----------1----------|--0--------3----------|
  |--2-------------------|--0-------------------|--2-------------------|--2-------------------|
  |--3-------------------|--------0-------------|--4-------------------|--------0-------------|
  |--------0-------------|----------------------|--------3-------------|----------------------|
  |--0-------------------|--2-------------------|--4-------------------|--3-------------------|

                      
      Q     E  E  E  E       Q     Q     Q          Q     E  E  E  E       E  E  Q     Q
  ||--0-----------0--3----|--2-------------------|--0-----------0--3----|--7--5--2-------------||
  ||-----------1----------|--------3-------------|-----------1----------|--------------3-------||
  ||o-------2-------------|--------------2-------|--------2-------------|---------------------o||
  ||o-------2-------------|--------0-------------|--------2-------------|--------0------------o||
  ||--0-------------------|--0-------------------|--0-------------------|--3-------------------||
  ||----------------------|----------------------|----------------------|----------------------||

                
     Q     E  E  E  E       Q     Q     Q          Q     E  E  E  E       E  E  Q     Q        
  |--------------3--6----|--5-------------------|--3-----------3--6----|--10-8--5-------------|
  |--4--------4----------|--------6-------------|-----------4----------|--------------6-------|
  |--------5-------------|--------------5-------|--------5-------------|----------------------|
  |--------5-------------|--------3-------------|--------5-------------|--------3-------------|
  |--3-------------------|--3-------------------|--3-------------------|--6-------------------|
  |----------------------|----------------------|----------------------|----------------------|
                
 
     Q     E  E  E  E       Q     Q     Q          Q     E  E  E  E       E  E  Q     Q        
  |--3-----------3--6----|--5-------------------|--3-----------3--6----|--10-8--5-------------|
  |-----------4----------|--------6-------------|-----------4----------|--------------6-------|
  |--------5-------------|--------------5-------|--------5-------------|----------------------|
  |--------5-------------|--------3-------------|--------5-------------|--------3-------------|
  |--3-------------------|--3-------------------|--3-------------------|--6-------------------|
  |----------------------|----------------------|----------------------|----------------------|
 
 
      Q     E  E  E  E       Q     Q     Q          Q     E  E  E  E       E  E  Q     Q         
  ||--0-----------0--3----|--2-------------------|--0-----------0--3----|--7--5--2-------------||
  ||-----------1----------|--------3-------------|-----------1----------|--------------3-------||
  ||o-------2-------------|--------------2-------|--------2-------------|---------------------o||
  ||o-------2-------------|--------0-------------|--------2-------------|--------0------------o||
  ||--0-------------------|--0-------------------|--0-------------------|--3-------------------||
  ||----------------------|----------------------|----------------------|----------------------||

                                                                          ^
     Q.       Q.            Q     E  Q     E       Q     E  Q.            Q     Q     Q        
  |--0-------------------|----------------------|----------------------|----------------------|
  |--1--------1----------|--3--------3----------|--1--------1----------|--0-----1-----3-------|
  |--4--------0----------|--2--------4----------|--0--------0----------|--0-------------------|
  |--2--------2----------|--4-----2--------2----|--------2-------------|--0-------------------|
  |--0-------------------|--0-------------------|--0-------------------|----------------------|
  |----------------------|----------------------|----------------------|--2-------------------|

                                                    
     Q     E  Q.            Q     E  Q.            Q     E  Q.            Q     E  Q     E
  |----------------------|----------------------|----------------------|----------------------|
  |-----------1----------|--0--------3----------|-----------1----------|--0--------3----------|
  |--2-------------------|--0-------------------|--2-------------------|--0-------------------|
  |--3-------------------|--------0-------------|-----------2----------|--------0--------0----|
  |--------0-------------|----------------------|--------3-------------|----------------------|
  |--0-------------------|--2-------------------|--3-------------------|--5-------------------|

                                                                          ^
     Q.       Q.            Q     E  Q     E       Q     E  Q.            Q     Q     Q
  |--0--------0----------|----------------------|----------------------|----------------------|
  |--1--------1----------|--3--------3----------|--1--------1----------|--0-----1-----3-------|
  |--4--------4----------|--2--------2----------|--2--------2----------|--0-------------------|
  |--2-------------------|--4-----2--------2----|--------2-------------|--0-------------------|
  |--0-------------------|--0-------------------|--0-------------------|----------------------|
  |----------------------|----------------------|----------------------|--2-------------------|

                                                                          ^
     Q     E  Q.            Q     E  Q.            Q     E  Q.            Q     E  Q.     
  |----------------------|----------------------|----------------------|----------------------|
  |-----------1----------|--0--------3----------|-----------1----------|--0--------3----------|
  |--2-------------------|--0-------------------|--2-------------------|--2-------------------|
  |--3-------------------|--------0-------------|--4-------------------|--------0-------------|
  |--------0-------------|----------------------|--------3-------------|----------------------|
  |--0-------------------|--2-------------------|--4-------------------|--3-------------------|

      
     Q     E  Q     E       Q     E  Q     E       Q     E  Q     E       Q     E  Q     E
  |--0--------0----------|--0--------0----------|--2--------2----------|----------------------|
  |--1--------1----------|--1--------1----------|--3--------3----------|--3--------3----------|
  |--4--------0----------|--0--------0----------|--2--------2----------|--2--------2----------|
  |--------2--------2----|--------2--------2----|--------2--------2----|--------2--------2----|
  |--0-------------------|----------------------|--0-------------------|----------------------|
  |----------------------|----------------------|----------------------|----------------------|


     Q.       Q.            Q.       Q.            Q.       Q.            Q.       Q.
  |----------------------|----------------------|----------------------|----------------------|
  |--1--------1----------|--1--------1----------|--3--------3----------|--0--------0----------|
  |--2--------2----------|--2--------2----------|--4--------4----------|--0--------0----------|
  |--3--------3----------|--3--------3----------|--5--------5----------|--0--------0----------|
  |--0-------------------|--0-------------------|----------------------|--2-------------------|
  |----------------------|----------------------|--2-------------------|----------------------|


     Q     E  E  E  E       Q     Q     Q          Q     E  E  E  E       E  E  Q     Q 
  |--------------0--3----|--2-------------------|--------------0--3----|--7--5--2-------------|
  |-----------1----------|--------3-------------|-----------1----------|--------------3-------|
  |--2-------------------|--------------2-------|--------2-------------|----------------------|
  |--------2-------------|--------0-------------|--------2-------------|--------0-------------|
  |--0-------------------|--0-------------------|--0-------------------|--3-------------------|
  |----------------------|----------------------|----------------------|----------------------|

                                                |--RALL--------------------------------------->
     Q     E  E  E  E       Q     Q     Q          Q     E  E  E  E       E  E  Q     Q 
  |--------------0--3----|--2-------------------|--0-----------0--3----|--7--5--2-------------|
  |-----------1----------|--------3-------------|-----------1----------|--------------3-------|
  |--------2-------------|--------------2-------|--------2-------------|----------------------|
  |--------2-------------|--------0-------------|--------2-------------|--------0-------------|
  |--0-------------------|--0-------------------|--0-------------------|--3-------------------|
  |----------------------|----------------------|----------------------|----------------------|

     ^
     E  H           E       H.
  |--0--------------L----|--L-------------------||
  |--1--------------L----|--L-------------------||
  |--4p-0-----------L----|--L-------------------||
  |--2--------------L----|--L-------------------||
  |--0--------------L----|--L-------------------||
  |----------------------|----------------------||

Login or Register to remove this ad.