The Still Sad World (Aion) Guitar Tab

Submitted: Jan 16, 2010 by diralark (Last updated: Jan 18, 2010)

4.666665
Average: 4.7 (3 votes)
Download | Listen
Game: Aion
Composer(s): Ryo Kunihiko
Style: Arrangement, Fingerstyle

AutoScroll: Slow | Medium | Fast
                Aion - The Still Sad World                            

Music:Ryo Kunihiko >> Score: Matt Fuss >> Tab: Diralark


Guitar
      H.           E  E     E  E  E  E  H           E  E  E  Q    E  E  E   
E||---0------------------|--------------0--------|--0-----0--3----0--2--0--|
B||----------------3--2--|--------0--3-----------|-----0-------------------|
G||*--0------------------|-----2-----------------|--0--------0-------2-----|
D||*---------------4-----|--0--------------------|-------------------------|
A||----------------------|-----------------------|-------------------------|
E||---0------------------|-----------------------|--0----------------------|


  E  E  E  E  E  E  E  E     H.           E  E     E  E  E  E  Q.     E   
--------------0--2--3-----|--0------------------|------------------------|
--------1--3-----------1--|---------------3--2--|--0-----0--2------------|
-----0--------------------|--0------------------|-----2---------------2--|
--------------------------|---------------------|--2-----------2---------|
--3-----------------------|---------------------|--0---------------------|
--------------------------|--0------------------|------------------------|


  T T S S S S S S S S S S S S S S S    S S S S H        E  E   
------------0-2-----------0-2-3-5-7-|------0-2-3--------------|
----0---1-3---------0-1-3-----------|--1-3--------------------|
--2---0---------0-2-----------------|-------------------------|
------------------------------------|-------------------------|
--3---------------------------------|----------------------0--|
------------------------------------|-------------------------|


  E  E  E  E  E  E  E  E     Q    E  E  Q.     E     E  E  Q.     E  Q     
--------------------------|-----------------------|-----------------------|
-----------------0--------|-----------------------|-----------------------|
--------------0-----------|-----------------------|-----------------------|
--2-----2--4--------0-----|-------------2---------|--------2--------------|
-----2-----------------4--|-------0--4--0---------|-----2------------2----|
--3-----------------3-----|--------------------2--|--3------------0-------|


  E  E  E  E  E  E  E  E     E  E  E  E  E  E  E  E     Q    E  E  E  E  E  E   
--------------------------|--------------------------|-------------------------|
--------------------------|-----------------0-----3--|-------------------------|
-----------------0--------|--------------0-----0-----|----------------------2--|
-----------2--4-----4--2--|--2-----2--4-----------4--|-------------2--------2--|
--3-----3-----------------|-----2--------------------|--4----0--4-----0--4-----|
--0--3--------------------|--0-----------------------|-------------0-----------|


  E  E  Q    E  E  Q       S S E  E  Q    E  E  E     S S S S S S S S H         
-------------------0----|--------------------------|----------------0-0--------|
-------------------0----|--------------------------|--------------0---0--------|
--0---------------------|--------------------------|------------0--------------|
--------2-------2-------|--2-4-2-----2-------------|--------0-2----------------|
-----2------------------|---------3----------3-----|------3-----------0--------|
----------------3-------|--3--------------3-----0--|--2-3-------------0--------|


  H           E  E  E  E  E  E  E  E     E  E  E  E  E  E  E  E   
-----------|-----------0--2--3--2--0--|--------------0--2--0-----|
-----------|--------0-----------------|-----------3-----------3--|
-----------|--0--------------0--------|--------2-----------------|
-----------|-----2-----4--------------|--4--0-----2-----0--------|
-----------|--2--------------2--------|--0--------------0--------|
-----------|--------------------------|--------------------------|


  E  E  E  E  E  E  S S S S    E  E  E  E  E  E  E  E   
----------------------------|-----------------0--3-----|
--------0-----3-------------|-----------1--3-----------|
--------------------4-------|--------0-----------------|
--0--4-----------4------2-4-|--2--4--------------------|
--2--------2----------2-----|--3--------------------3--|
--2-------------------------|--------------------------|


  E  E  E  E  E  E  E  E     E  E  E  E  E  E  E  E   
-----------0--2--3--2--0--|--------------0--2--0-----|
--------0-----------------|-----------3-----------3--|
--0--------------0--------|--2-----2-----------------|
-----2-----4--------------|-----0-----4-----0--------|
--2--------------2--------|--0-----------------------|
--------------------------|--------------------------|


  E  E  E  E  E  E  E  E     S S S S S S S S S S S S Q       H         
--------------------------|----------------------0-3------|-----------|
-----------0-----0--3--0--|------------3-------3----------|-----------|
--------------------------|--0-------0-------0------------|-----------|
--0-----4--2--4-----------|--2---0-2-----0-2--------------|-----------|
-----2--------------------|--3----------------------------|-----------|
--2-----------------------|----3-------3------------------|-----------|


  E  E  E  E  E  E  E  E     E  E  E  Q    E  E  E     E  E  E  E  E  E  E  E   
--0-----0--3--7--9--7-----|--------5--9----5--------|--0-----0--3--7--0--2--3--|
-----0--------------------|-----5----------------5--|-----0--------------------|
-----------------------7--|--5----------------------|--2-----------------------|
--2-----------------------|--7----------------------|--2-----------------4--2--|
--------------------------|-------------------7-----|--------------------------|
--------------------------|-------------------------|--------------------------|


  E  E  E  E  E  E  E  E     E  E  E  E  E  E  E  E   
--------------------------|--0-----0--3-----2--0-----|
--------1--0--------------|-----0--------0--3-----3--|
-----0--------0-----0-----|--0--------------------0--|
-----------------4--------|--2-----------------0-----|
--3-----------------2--3--|--------------------------|
--------------------------|--------------------------|


  E  E  E  E  E  E  E  E     T S. E  E  E  E  E  E  E   
-----------------0--------|----------------------------|
--2--------2--------3--2--|----0-----------0-----------|
--------2-----2-----4--2--|--2----------0--------------|
--2--2--------------------|----------4--2--------------|
--0-----------------------|-------2-----------------2--|
--------------------------|----------------0--2--3-----|


  E  E  E  E  E  E  E  E       H        H          
--------------0--2--3--7---||--0-----------------||
-----------0---------------||--------------------||
--------0-----------------*||--0-----------------||
--2--4--------------------*||--2-----------------||
---------------------------||--2-----------------||
---------------------------||--------------------||




Duration Legend
---------------
W - whole
H - half
Q - quarter
E - 8th
S - 16th
T - 32nd
X - 64th
. - note dotted
|-n-|  - n-tuplets


Tablature Legend
----------------
L - tied note
x - dead note
g - grace note
(n) - ghost note
> - accentuded note
NH - natural harmonic
AH - artificial harmonic
TH - tapped harmonic
SH - semi harmonic
PH - pitch harmonic
h - hammer on
p - pull off
b - bend
br - bendRelease
pb - preBend
pbr - preBendRelease
brb - bendReleaseBend
\n/ - tremolo bar dip
\n - tremolo bar dive
-/n - tremolo bar Release up
/n\ - tremolo bar inverted dip
/n - tremolo bar return
-\n - tremolo bar Release down
S - shift slide
s - legato slide
/ -  slide into from below or out of upwards
\ -  slide into from above or out of downwards
~ - vibrato
W - wide vibrato
tr - trill
TP - tremolo picking
T - tapping
S - slap
P - pop
< - fade in
^ - brush up
v - brush down
Login or Register to remove this ad.

6 comments on The Still Sad World

Bonus!

5

This must have slipped under the radar, dira. Great tab!

MTM (Brandon)

thanks :) idd I noticed than

thanks :) idd I noticed than a nice tab can easyly fells into oblivion, that 's life :)

Hehe, I have like 360 tabs,

Hehe, I have like 360 tabs, but I kinda doubt anyone will ever play most of them . . . well, except me I guess xD But even if they do fall into oblivion, as you say, at least you learn something from making each one :-)

Auri tabs!

Auri, if it's any consolation, I play tons of your tabs, especially the bass ones. =)

& more consolations : I play

& more consolations : I play your solo guitar tabs too Auri :)
Also I created today an 911tabs.com account coz it seems a good way to increase the audience of our tabs if we'd like more of that, also "songbook" function is usefull ^^. (with an account it s possible to add links from this tab motor to our tabs here)

BUMP

5

Yeah, I'm doing this in hopes it catches anyones eye. It's a good tab, check it out again.