Jess's Theme (Advance Wars 2: Black Hole Rising) Bass Tab

Submitted: Dec 05, 2009 by auriplane (Last updated: Dec 19, 2011)

0
Download | Listen
Game: Advance Wars 2: Black Hole Rising
Composer(s): Yoshito Hirano
Style: Transcription

AutoScroll: Slow | Medium | Fast
                  Advance Wars 2 - Jess's Theme BASS TAB
                        Composed by Yoshito Hirano

                  Tabbed by Auriplane ([email protected])


This tab is in drop-D tuning.  Rest for 12 measures at the beginning.
Also, this same song is in Advance Wars DS.



      Part A


   E.       S  S  S  S  S  S  S  S  S  S  S  S  S    \
G |------------------------------------------------|  \
D |------------------------------------------------|   |
A |------------------------------------------------|   |
D |0--------0h-10h12-0--0--L--0h-3h-5--0--0h-3h-5--|   |
                                                       | 2x 
                                                       |   
   E.       S  S  S  S  S  S  S  S  S  S  S  S  S      |
G |------------------------------------------------|   |
D |------------------------------------------------|   |
A |------------------------------------------------|  /
D |0--------0h-10h12-0--0--0--0h-9h-10-0--0h-9h-10-| / 


      Part B


   E   E   E   S S S S S S E   E    E   E   E   S S S S S S S S S S  
G |--------------------------------|--------------------------------|
D |--------------------------------|--------------------------------|
A |--------------------------------|----2---------1-L-1-L-1-L-0-L---|
D |12--0------12-0-L-0-L---3---4---|5-----------5-----------------2-|


   E   E   E   S S S S S S E   E    E   E   E   S S S S S S E   E    
G |--------------------------------|--------------------------------|
D |----------------------4-3-------|--------------------------------|
A |5-----------------5-L-------5---|3---3-------0-1-L-2-L-2-3---4---|
D |----0-------0-0-L---------------|--------------------------------|


   E   E   E   S S S S S S E   E    E   E   E   S S S S S S S S S S
G |--------------------------------|--------------------------------|
D |--------------------------------|--------------------------------|
A |5-----------5-------------------|----2-------1-1-L-1-L-0-L-0-L---|
D |----0---------0-L-0-L---3---4---|5-----------------------------3-|


   E   E   E   S S S S S S E   E    E   E   E   S S S S S S E   E    
G |--------------------------------|--------------------------------|
D |--------------------------------|--------------------------------|
A |5-----------------5-L-5---------|--------------3-L-3-L-3-3---3---|
D |----0-------0-0-L-------3---4---|5---5-------5-------------------|


      Part C


   E   S S S S E   S S S S S S S S  S S S S S S E   S S S S Q        
G |--------------------------------|--------------------------------|
D |--------------------------------|--------------------------------|
A |0---0-----0-0---0-----0-L-------|0-0-L-----0-0---0-----0---------|
D |--------------------------------|--------------------------------|


   E   S S S S E   S S S S S S S S  S S S S S S E   S S S S S S S S  
G |--------------------------------|--------------------------------|
D |--------------------------------|--------------------------------|
A |0---0-----0-0---0-----0-L-------|0-0-L-----0-0---0-----0-------0-|
D |--------------------------------|--------------------------------|


   S  S  S  S  S  S  S  S  S  S  S  S  S  S  S  S   
G |------------------------------------------------|
D |------------------------------------------------| x2
A |L--0--L--0-h10h12-0--0--L--0--L--0-h10h12-0--0--| 
D |------------------------------------------------|


   S  S  S  S  S  S  S  S  S  S  S  S  S  S  S  S   
G |------------------------------------------------|
D |------------------------------------------------| x2
A |0-----0--0-h10h12-0--0--L--0--L--0-h10h12-12-0--|
D |------------------------------------------------|


      Part D

   Q.          S S S S S S S S S S  S S S S Q       Q       Q        
G |--------------------------------|--------------------------------|
D |--------------------------------|--------------------------------|
A |0-----------0-0---2---4-0---0---|0-0---0-L-------L-------5-------|
D |--------------------------------|--------------------------------|


      Rest for four measures, and repeat back to Part A.



Duration Legend
---------------
W - whole
H - half
Q - quarter
E - 8th
S - 16th
. - note dotted


Tablature Legend
----------------
L - tied note

Login or Register to remove this ad.