Ads

Adachi and Shimamura (Adachi and Shimamura) Guitar Tab

Submitted: Jun 01, 2021 by judgexii (Last updated: Jun 02, 2021)

5
Average: 5 (2 votes)
Download | Listen
Game: Adachi and Shimamura
Style: Fingerstyle

This song is also called Genjitsu

AutoScroll: Slow | Medium | Fast
"Adachi and Shimamura" - Adachi and Shimamura
Composers : 櫻井美希
Arrangement : judgexii
Tuning : Standard EADGBe
BPM : 78 (4/4 time)

   Intro
   F2                                                          C2                            F2
   q     q     q     q           q     q     q     q           q    q    q    q              s s e  e e  q     q     
e--8--------------------------|-----------------------------|-----------------------------|--7-8-7----------------------|
B--8--------------------------|-----------------------------|-----------------------------|-----------8--3--------------|
G--10-------------------------|-----------------------------|--5----5----5----5-----------|--5------5----5-----5--------|
D--10----10----10----10-------|--10----10----10----10-------|--5--------------------------|-----------------------------|
A--8--------------------------|--8--------------------------|--3--------------------------|-----------------------------|
E--8--------------------------|-----------------------------|-----------------------------|-----------------------------|

   F2                            C2                                                          F2
   q    q    q    e  e           q    q    q    |-3-|          q    q    q    |-3-|          q    q     q     |--3-|
e--------------------3--------|-----------------------------|---------------------3-------|-------------------------7---|
B-----------------------------|--3--------------------------|-----------------------------|-----------------------------|
G--5----5----5----5-----------|--5------------------5-------|--5--------------------------|--5----5-----5-----5---------|
D--3--------------------------|--5----5----5----5-----------|--5----5----5----5-----------|--3--------------------------|
A-----------------------------|--3--------------------------|--3--------------------------|-----------------------------|
E-----------------------------|-----------------------------|-----------------------------|-----------------------------|

   F2                            Em                            Am
   q     q     q     |--3--|     q    q    q    |-3-|          q    q    q    q
e--------------------------10-|---------------------7-------|--8---------10---------------|
B--8--------------------------|--8--------------------------|-----------------------------|
G-----------------------------|-----------------------------|--9----9----9----9-----------|
D--10----10----10----10-------|--9----9----9----9-----------|--7--------------------------|
A--8--------------------------|--7--------------------------|-----------------------------|
E-----------------------------|-----------------------------|-----------------------------|

   Main Score
   F2                                     G                                      F2
   |--3--|  |--3--|  |--3--|  |--3--|     |--3--|  |--3--|  |--3--|  |--3--|     |--3--|  |--3--|  |--3--|  |--3--|
e--3--------------------3--------------|--------------------------------------|--3-----------------------------------|
B-----------3-----------------------3--|--1--0--------------0--------0--------|-----------3--------------------------|
G-----4--5--5--5--4--5--------4--5-----|--0-----0-----------------------------|-----4--5--5--5--4--5--4--0-----4--0--|
D--3-----------------------5--------3--|-----------0--------------0--------0--|--3--------------------------0--------|
A--------------------------------------|--------------------------------------|--------------------------------------|
E--------------------------------------|--------------------------------------|--------------------------------------|

   Em                                     Dm                                     Em
   |--3--|  |--3--|  |--3--|  |--3--|     |--3--|  |--3--|  |--3--|  |--3--|     |--3--|  |--3--|  |--3--|  |--3--|
e--------------------------------------|-----0--1--3--5--7--------------------|-----------------------------------3--|
B-----3--------------0--------0--------|--3--------3--------1--0-----3--1-----|--------------------3-----------------|
G--------0--------------------------0--|--------------------2-----2--2-----0--|-----0-----0--------------4-----------|
D--0--------2--------------2-----------|--0--------0--------0--------0--------|--0-----0--------------------5--------|
A--------------------------------------|--------------------0-----------------|--------------------------------------|
E--0-----------------------------------|--------------------------------------|--0-----------------------------------|

   F2                C2                   G                                      F2
   |--3--|  |--3--|  |--3--|  |--3--|     |--3--|  |--3--|  |--3--|  |--3--|     |--3--|  |--3--|  |--3--|  |--3--|
e-----3--------------------------------|--------------------------------------|--3-----------------------------------|
B--3-----3-----------------------------|-----------------------------3--------|-----------3--------------------------|
G-----------5--------5--------------5--|--0--------0--------4-----------------|-----4--5--5--5--4--5--4--0-----0--4--|
D--3-----------------------5-----------|--0-----------------------5-----------|--3-----------------5--------0-----3--|
A-----------------------------3--------|--------------------------------------|--------------------------------------|
E--------------------------------------|--------------------------------------|--------------------------------------|

   G                                      F2                                     Em                
   |--3--|  |--3--|  |--3--|  |--3--|     |--3--|  |--3--|  |--3--|  |--3--|     |--3--|  |--3--|  |--3--|  |--3--|
e--------------------------------------|--3-----------------------------------|--------------------------------------|
B--1--0--------------0--------3-----1--|-----------3--------------------------|-----3--------------3--0-----1--0-----|
G--0-----0--------------0-----4--------|-----4--5--5--5--4--0-----0--5--4--0--|--------0--------------------2-----0--|
D-----------0--------------0--------2--|--3--------------------0--------------|--0--------2--------0--------------0--|
A--------------------------------------|--------------------0--------3--------|--------------------------2-----------|
E--------------------------------------|--------------------------------------|--0-----------------------------------|

   Dm                                     Em                                     F2
   |--3--|  |--3--|  |--3--|  |--3--|     |--3--|  |--3--|  |--3--|  |--3--|     |--3--|  |--3--|  |--3--|  |--3--|
e-----0--1--3--5--7--------0--1--0-----|-----------0-----------------------3--|--------------------------------------|
B--3-----------------1--3-----3-----1--|--3--------------------------3--------|-----------1--------------------------|
G-----------2--------------------------|-----0-----------------0-----0-----0--|-----0--------------0--------5-----0--|
D--0--------0--------2--------0--------|--2-----0-----------0-----------------|--0-----0-----------------------------|
A--------------------0-----------------|--------------------------------------|-----------------------------3--------|
E--------------------------------------|--------------------------3--0--------|--1-----------------------------------|

   Outro
   F2
   |--3--|  |--3--|  |--3--|  |--3--|     |--3--|  |--3--|  |--3--|  |--3--|     |--3--|  |--3--|  |--3--|  |--3--|
e-----------19-------15-------10-------|--8-----------------------------------|--------------------------------------||
B-----------15-------12-------8--------|--------------------------------------|--------------------------------------||
G--0-----------------------------------|--------------------------------------|--------------------------------------||
D--3-----------------------------------|--------------------------------------|--------------------------------------||
A--------------------------------------|--------------------------------------|--------------------------------------||
E--------------------------------------|--------------------------------------|--------------------------------------||

Note Legend
-----------
w - whole
h - half
q - quarter
e - eighth
. - dotted

Tab Legend
-----------
() - continue holding note
h - hammer on
p - pull off
/ - slide up
\ - slide down
<> - natural harmonic
^ - brush up
Login or Register to remove this ad.

2 comments on Adachi and Shimamura

Sounds great.

5

Thanks again for posting this. I'll be playing this all day now. :D

Enjoy!!

Enjoy!!