Investigation ~ Opening 2009 (Ace Attorney Investigations: Miles Edgeworth) Bass Tab

Submitted: Mar 02, 2010 by auriplane (Last updated: Mar 03, 2010)

5
Average: 5 (1 vote)
Download | Listen
Game: Ace Attorney Investigations: Miles Edgeworth
Composer(s): Noriyuki Iwadare, Yasuko Yamada
Style: Transcription
Series: Phoenix Wright

AutoScroll: Slow | Medium | Fast
                  Ace Attorney Investigations: Miles Edworth
                    Investigation ~ Opening 2009 BASS TAB
                Composed by Noriyuki Iwadare and Yasuko Yamada
  
                   Tabbed by Auriplane ([email protected])




Rest for two measures at the beginning.  Five-string bass, standard tuning. 



        Part A


   S S S S S S S S S S S S S S S S  S S S S S S S S E   E   E   S S
G |----5-----5---3---3-2-----------|----5-----5---3-L---------------|
D |--5---------------------3-------|--5-----------------------------|
A |3-----3-------------------------|3-----3-------------------------|
E |------------------------------3-|------------------------------3-|
B |--------------------------------|--------------------------------|


   S S S S S S S S S S S S S S S S  S S S S S S S S E   E   E   S S
G |----3-----3---1---1-0-----------|----3-----3---1-L---------------|
D |--3---------------------1-------|--3-----------------------------|
A |1-----1-------------------------|1-----1-------------------------|
E |------------------------------1-|------------------------------1-|
B |--------------------------------|--------------------------------|


   S S S S S S S S S S S S S S S S  S S S S S S S S E   E   E   S S
G |----5-----5---3---3-2-----------|----5-----5---3-L---------------|
D |--5---------------------3-------|--5-----------------------------|
A |3-----3-------------------------|3-----3-------------------------|
E |------------------------------3-|------------------------------3-|
B |--------------------------------|--------------------------------|


   S S S S S S S S S S S S S S S S  S S S S S S S S E   E   E   E
G |----3-----3---1---1-0-----------|----3-----3---1-L---------------|
D |--3---------------------1-------|--3-----------------------------|
A |1-----1-------------------------|1-----1---------------------5---|
E |------------------------------1-|--------------------------------|
B |--------------------------------|--------------------------------|


        Part B


   S S S S S S S S S S S S S S S S  S S S S S S S S E   E   E   S S
G |--------------------------------|--------------------------------|
D |----5-----5---3---3-2-----------|----5-----5---3-L---------------|
A |--5---------------------3-------|--5-----------------------------|
E |3-----3-------------------------|3-----3-------------------------|
B |------------------------------3-|------------------------------3-|


   S S S S S S S S S S S S S S S S  S S S S S S S S E   E   E   S S
G |--------------------------------|--------------------------------|
D |----3-----3---1---1-0-----------|----3-----3---1-L---------------|
A |--3---------------------1-------|--3-----------------------------|
E |1-----1-------------------------|1-----1-------------------------|
B |------------------------------1-|------------------------------1-|


        Part C


   S S S S Q       Q       E.    S  S S S S Q       Q       E.    S
G |----3---------------------------|----3---------------------------|
D |--3-----------------------------|--3-----------------------------|
A |1-----1-------------------------|1-----1-------------------------| x2
E |--------------------------------|--------------------------------|
B |------------------------------3-|------------------------------1-|


   S S S S Q       Q       E.    S  S S S S Q       Q       E.    S
G |----4---------------------------|----4---------------------------|
D |--4-----------------------------|--4-----------------------------|
A |2-----2-------------------------|2-----2-------------------------|
E |--------------------------------|--------------------------------|
B |------------------------------2-|------------------------------2-|


   S S S S Q       Q       E.    S  S S S S Q       Q       E.    S
G |----4---------------------------|----4---------------------------|
D |--4-----------------------------|--4-----------------------------|
A |2-----2-------------------------|2-----2-------------------------|
E |--------------------------------|--------------------------------|
B |------------------------------4-|------------------------------2-|


        Part D


   S S S S S S S S S S S S S S S S  S S S S S S S S E   E   E   S S   \
G |--------------------------------|--------------------------------|  \ 
D |----7-----7---5---5-4-----------|----7-----7---5-L---------------|   |
A |--7---------------------5-------|--7-----------------------------|   |
E |5-----5-------------------------|5-----5-------------------------|   |
B |------------------------------5-|------------------------------5-|   |
                                                                        | x2
                                                                        |
   S S S S S S S S S S S S S S S S  S S S S S S S S E   E   E   S S     |
G |--------------------------------|--------------------------------|   |
D |----5-----5---3---3-2-----------|----5-----5---3-L---------------|   |
A |--5---------------------3-------|--5-----------------------------|   |
E |3-----3-------------------------|3-----3-------------------------|  / 
B |------------------------------3-|------------------------------3-| /






Duration Legend
---------------
W - whole
H - half
Q - quarter
E - 8th
S - 16th
. - note dotted
|-n-|  - n-tuplets


Tablature Legend
----------------
L - tied note

Login or Register to remove this ad.