Cammy Meele ~ Good Night (Ace Attorney Investigations: Miles Edgeworth) Bass Tab

Submitted: Mar 05, 2010 by auriplane (Last updated: Mar 05, 2010)

5
Average: 5 (2 votes)
Download | Listen
Game: Ace Attorney Investigations: Miles Edgeworth
Composer(s): Noriyuki Iwadare, Yasuko Yamada
Style: Transcription
Series: Phoenix Wright

This song is also called 白音若菜 ~おやすみなさいですぅ

AutoScroll: Slow | Medium | Fast
                 Ace Attorney Investigations: Miles Edworth
                      Cammy Meele ~ Good Night BASS TAB
               Composed by Noriyuki Iwadare and Yasuko Yamada

                   Tabbed by Auriplane ([email protected])


This is also under "Wakana Shiraoto", because that's her name in the Japanese
version of the game.  Please note the key change halfway through Part B, and
see the attached PDF if you want sheet music instead.  I also made a GP5 file
containing this and all the guitar parts, which I'll be posting separately.

This tab has a lot of dead notes.  For these, keep your index finger on the 
same note you last played, and rest the other three fingers across the string
to mute it while you play it.

Four-string bass, standard tuning.


        Part A


   Q   E E Q   E E  Q   E E E E E E  Q   E E Q   E E  Q   E E E E E E
G |----------------|----------------|----------------|----------------|
D |----------------|----------------|----------------|----------------|
A |3---x---------3-|----------0-1-2-|3---x---------3-|0---x-0-0-0-1-2-|
E |------3-3---x---|1---x-2-2-------|------3-3---x---|----------------|


   Q   E E Q   E E  Q   E E E E E E  Q   E E Q   E E  Q   Q   E E E E
G |----------------|----------------|----------------|----------------|
D |----------------|----------------|----------------|----------------|
A |3---x---------3-|----------0-1-2-|3---x---------3-|3-------3---0-2-|
E |------3-3---x---|1---x-2-2-------|------3-3---x---|----------3-----|


        Part B


   Q   E E Q   E E  Q   E E Q   E E  Q   E E Q   E E  Q   E E Q   Q
G |----------------|----------------|----------------|----------------|
D |----------------|----------------|0---x---------0-|----------------|
A |3---x---------3-|3---x---------3-|------0-0---x---|3---x-------4---|
E |------3-3---x---|------3-3---x---|----------------|------3-3-------|


   Q   E E Q   E E  Q   E E Q   E E  E E E E E E E E  E E E E E E E E
G |----------------|----------------|----------------|----------------|
D |0---x---------0-|0---x---------0-|2-2-x-2-2-2-x-2-|----------------|
A |------0-0---x---|------0-0---x---|----------------|0-0-0-0-0-0-0-0-|
E |----------------|----------------|----------------|----------------|


        Part C


   Q   E E Q   E E  Q   E E E E E E  Q   E E Q   E E  Q   E E E E E E
G |----------------|----------------|----------------|----------------|
D |0---x---------0-|----------------|0---x---------0-|1---x-1---------|
A |------0-0---x---|----------2-3-4-|------0-0---x---|--------0-1-3-4-|
E |----------------|3---x-4-4-------|----------------|----------------|


   Q   E E Q   E E  Q   E E E E E E  Q   E E Q   E E  Q   Q   E E E E
G |----------------|----------------|----------------|----------------|
D |0---x---------0-|----------------|0---x---------0-|0-------0-------|
A |------0-0---x---|----------2-3-4-|------0-0---x---|----------0-2-4-|
E |----------------|3---x-4-4-------|----------------|----------------|




Duration Legend
---------------
W - whole
H - half
Q - quarter
E - eighth
S - sixteenth


Tablature Legend
----------------
x - dead note

Login or Register to remove this ad.

3 comments on Cammy Meele ~ Good Night

Cool

5

Love your bass tabs, auri.

All of your tabs are good, no

5

All of your tabs are good, no matter how bad the song itself may be.

Haha! I love this song xD I

Haha! I love this song xD I did a cover of it, actually, but I didn't upload it because I just did a bad job all around T_T