Cammy Meele ~ Good Night (Ace Attorney Investigations: Miles Edgeworth) Guitar Tab

Submitted: Mar 05, 2010 by auriplane (Last updated: Apr 04, 2010)

4
Average: 4 (1 vote)
Download | Listen
Game: Ace Attorney Investigations: Miles Edgeworth
Composer(s): Noriyuki Iwadare, Yasuko Yamada
Style: Alternate picking, Transcription
Series: Phoenix Wright

This song is also called 白音若菜 ~おやすみなさいですぅ

AutoScroll: Slow | Medium | Fast
                 Ace Attorney Investigations: Miles Edworth
                     Cammy Meele ~ Good Night GUITAR TAB
               Composed by Noriyuki Iwadare and Yasuko Yamada

                   Tabbed by Auriplane ([email protected])


This is also under "Wakana Shiraoto", because that's her name in the Japanese
version of the game.  Please note the key change halfway through Part B, and
I also made a bass tab.  See the GP5 file for all parts, if you like.  The
piano part is not listed here because it's not very playable on guitar as-is,
though it's not horrible or anything.

Please ignore the "capo 12" in the GP5 file, which is just there to make the 
clarinet and such sound correct.  Also, I've marked the chords in the "Melody" 
(first guitar) as two separate voices in the GP5 file, so if you're playing a
distorted guitar, please play only the top voice (or play it on two guitars!)

Also, I tried to keep the melody on the first guitar most of the time, but in 
Part B, the fourth guitar has the melody.  I mention this in case you're just
looking to play along with the melody :-)

All guitars in standard tuning.  



                         FIRST GUITAR - MELODY


    Part A


   Q   Q   H        E E E E H        E E Q   Q   Q    Q   Q   H        
e |----8-----------|----------------|----------------|----9-----------|
B |8-------5-------|6-5-6-5---------|5---------------|----------------|
G |----------------|--------8-------|--8-7---6---5---|6-------6-------|
D |----------------|----------------|----------------|----------------|
A |----------------|----------------|----------------|----------------|
E |----------------|----------------|----------------|----------------|


   Q   Q   H        E E E E H        E E Q   Q   Q    Q   H.           
e |----8-----------|----------------|----------------|----------------|
B |8-------5-------|6-5-6-5---------|5---------------|----------------|
G |----------------|--------8-------|--8-7---5---4---|5---------------|
D |----------------|----------------|----------------|----------------|
A |----------------|----------------|----------------|----------------|
E |----------------|----------------|----------------|----------------|


    Part B


   H       E E E E  H       E E E E  H       E E E E  H       E E E E  
e |----------------|----------------|----------------|----------------|
B |----------------|----------------|----------------|----------------|
G |----------------|----------------|----------------|----------------|
D |--------5-4-3-2-|--------5-4-3-2-|--------7-6-5-4-|--------5-4-3-2-|
A |--------7-6-5-4-|--------7-6-5-4-|--------8-7-6-5-|--------7-6-5-4-|
E |----------------|----------------|----------------|----------------|


   H       E E E E  H       E E E E  E E E E E E E E  E E E E E SSE E  
e |----------------|----------------|----------------|----------------|
B |----------------|----------------|----8-------8---|----------------|
G |----------------|----------------|----------------|----------------|
D |--------7-6-5-4-|--------7-6-5-4-|5-5---5-5-5---5-|--7---7---77--7-|
A |--------9-8-7-6-|--------9-8-7-6-|----------------|4---4---4---4---|
E |----------------|----------------|----------------|----------------|


    Part C


   Q   Q   Q   Q    E E Q   E E Q    Q   Q   Q   Q    E E E E H        
e |----------------|----------------|----------------|----------------|
B |----------------|----------------|----------------|----------------|
G |7-------6---7---|9-8-7---9-8-7---|7-------6---7---|----------------|
D |----7-----------|----------------|----7-----------|7-6-5-6-7-------|
A |----------------|----------------|----------------|----------------|
E |----------------|----------------|----------------|----------------|


   Q   Q   Q   Q    E E Q   E E Q    E E E E Q   Q    E E E E H        
e |----------------|----------------|----------------|----------------|
B |----------------|----------------|----------------|----------------|
G |7-------6---7---|9-8-7---9-8-7---|----------------|----------------|
D |----7-----------|----------------|7-6-5-4---------|----------------|
A |----------------|----------------|--------7---4---|5-7-5-7-5-------|
E |----------------|----------------|----------------|----------------|




                       SECOND GUITAR - HARMONY 1


    Part A


This guitar does not play in Part A.  Rest for 8 measures.


    Part B


   SSSSSE. H        SSSSSE. H        SSSSSE. H        SSSSSE. H        
e |----------------|----------------|----------------|----------------|
B |----------------|----------------|----------------|----------------|
G |----------------|----------------|----------------|----------------|
D |22222-----------|22222-----------|33333-----------|22222-----------|
A |----------------|----------------|----------------|----------------|
E |----------------|----------------|----------------|----------------|


   SSSSSE. H        SSSSSE. H        SSSSSE. SSSSSE.  E E E E E E E E  
e |----------------|----------------|----------------|----------------|
B |----------------|----------------|----------------|----------------|
G |----------------|----------------|----------------|----------------|
D |44444-----------|44444-----------|55555---55555---|2-2-2-2-2-2-2-2-|
A |----------------|----------------|----------------|----------------|
E |----------------|----------------|----------------|----------------|


    Part C


   Q   Q   Q   Q    E E Q   E E Q    Q   Q   Q   Q    E E E E E E E E  
e |----------------|----------------|----------------|----------------|
B |----------------|----------------|----------------|--------7-6-5-6-|
G |----------------|4-3-2---4-3-2---|----------------|----------------|
D |7-------4---7---|----------------|7-------4---7---|4-3-2-3---------|
A |----5-----------|----------------|----5-----------|----------------|
E |----------------|----------------|----------------|----------------|


   Q   Q   Q   Q    E E Q   E E Q    E E E E Q   Q    E E E E H        
e |----------------|----------------|----------------|----------------|
B |7---------------|----------------|3-2-------------|----------------|
G |----------------|4-3-2---4-3-2---|----5-4-2-------|----------------|
D |--------4---7---|----------------|------------2---|4-5-4-5-4-------|
A |----5-----------|----------------|----------------|----------------|
E |----------------|----------------|----------------|----------------|





                        THIRD GUITAR - HARMONY 2


    Part A


This guitar does not play in Part A.  Rest for 8 measures.


    Part B


   SSSSSE. H        SSSSSE. H        SSSSSE. H        SSSSSE. H        
e |----------------|----------------|----------------|----------------|
B |----------------|----------------|----------------|----------------|
G |----------------|----------------|----------------|----------------|
D |----------------|----------------|----------------|----------------|
A |33333-----------|33333-----------|33333-----------|33333-----------|
E |----------------|----------------|----------------|----------------|


   SSSSSE. H        SSSSSE. H        SSSSSE. SSSSSE.  E E E E E E E E  
e |----------------|----------------|----------------|----------------|
B |----------------|----------------|----------------|----------------|
G |----------------|----------------|----------------|----------------|
D |----------------|----------------|----------------|----------------|
A |55555-----------|55555-----------|22222---11111---|4-4-4-4-4-4-4-4-|
E |----------------|----------------|----------------|----------------|


    Part C


   W                W                W                H       E E E E  
e |----------------|----------------|----------------|--------5-4-3-4-|
B |----------------|----------------|----------------|----------------|
G |----------------|----------------|----------------|----------------|
D |----------------|----------------|----------------|----------------|
A |----------------|----------------|----------------|----------------|
E |----------------|----------------|----------------|----------------|


   Q   H.           W                W                W                 
e |5---------------|----------------|----------------|----------------|
B |----------------|----------------|----------------|----------------|
G |----------------|----------------|----------------|----------------|
D |----------------|----------------|----------------|----------------|
A |----------------|----------------|----------------|----------------|
E |----------------|----------------|----------------|----------------|




                        FOURTH GUITAR - MARIMBA


    Part A


   E SSQ   E SSQ    E SSQ   E SSSSSS E SSQ   E SSQ    E SSQ   SSSSSSSS 
e |----------------|------------8765|----------------|----------------|
B |----------------|----------------|----------------|----2-------2345|
G |----5-------5---|----5-----------|----5-------5---|2-22----2345----|
D |5-55----5-55----|3-33----6-66----|5-55----5-55----|----------------|
A |----------------|----------------|----------------|----------------|
E |----------------|----------------|----------------|----------------|


   E SSQ   E SSQ    E SSQ   E SSSSSS E SSQ   E SSQ    Q   Q   SSSSSSSS 
e |----------------|------------8765|----------------|----------------|
B |----------------|----------------|----------------|------------2345|
G |----5-------5---|----5-----------|----5-------5---|--------2345----|
D |5-55----5-55----|3-33----6-66----|5-55----5-55----|5---------------|
A |----------------|----------------|----------------|----------------|
E |----------------|----------------|----------------|----------------|


    Part B


   E E E E E E E E  E E E E H        E E E E E E E E  Q   Q   Q   Q    
e |--8-7-8-7-5-----|----------------|--------------5-|----8-----------|
B |8-----------8-6-|5---5-6-8-------|6-5-------5-6---|8-------8-------|
G |----------------|--7-------------|----7-5-7-------|----------------|
D |----------------|----------------|----------------|----------------|
A |----------------|----------------|----------------|----------------|
E |----------------|----------------|----------------|----------------|


   E E E E E E E E  E E E E H        E E E E E E E E  E E E E E E E E 
e |--109-109-7-----|----------------|----------------|------------9-12|
B |10---------10-8-|7---7-8-10------|1212--121111--11|101010101012----|
G |----------------|--9-------------|----------------|----------------|
D |----------------|----------------|----------------|----------------|
A |----------------|----------------|----------------|----------------|
E |----------------|----------------|----------------|----------------|


    Part C


   E E E E E E E E  E E E E E E E E  E E E E E E E E  E E E E E E E E  
e |----2-2-----2-2-|----3-4-----4-4-|----2-2-----2-2-|----2-2-----2-2-|
B |----3-3-----3-3-|----3-3-----3-3-|----3-3-----3-3-|----4-4-----4-4-|
G |----------------|0-0-----1-1-----|----------------|----------------|
D |0-0-----0-0-----|----------------|0-0-----0-0-----|1-1-------------|
A |----------------|----------------|----------------|--------2-2-----|
E |----------------|----------------|----------------|----------------|


   E E E E E E E E  E E E E E E E E  E E E E E E E E  H       H        
e |----2-2-----2-2-|----3-4-----4-4-|----2-2-----5-5-|----------------|
B |----3-3-----3-3-|----3-3-----3-3-|----3-3-----5-5-|3-------3-------|
G |----------------|0-0-----1-1-----|--------2-2-----|2-------2-------|
D |0-0-----0-0-----|----------------|0-0-------------|4-------4-------|
A |----------------|----------------|----------------|----------------|
E |----------------|----------------|----------------|----------------|





Duration Legend
---------------
W - whole
H - half
Q - quarter
E - 8th
S - 16th
. - note dotted


Tablature Legend
----------------
L - tied note

Login or Register to remove this ad.

2 comments on Cammy Meele ~ Good Night

Nice! The weird thing

4

Nice! The weird thing is the fact I only beat this game two weeks ago.

Hehe, it was a pretty good

Hehe, it was a pretty good game :-D Well, I didn't like every case equally, but overall I thought it was pretty fun!