Ads

Quiet Ruins (The 7th Saga) Guitar Tab

Submitted: Feb 05, 2011 by BacardiBreezer (Last updated: Apr 27, 2011)

0
Download | Listen
Game: The 7th Saga
Composer(s): Norihiko Yamanuki
Style: 2 or more instruments, Transcription

Click here for a video example.

AutoScroll: Slow | Medium | Fast
Quiet Ruins
The 7th Saga
Composer: Norihiko Yamanuki
Tabbed by: Bacardibreezer
2/5/11

Guitar 1

e|----------------------------------------------------------------------|
B|----------------------------------------------------------------------|
G|-----14-14--17--16--14-12-14-----------12-14-16-14--12--14------------|
D|--12-----------------------------14-15---------------------12-12------|
A|----------------------------------------------------------------------|
E|----------------------------------------------------------------------|

e|-------------------------------12-------------------------------------|
B|----------------------------------14-13-12-10-12----10-15-15----------|
G|------14-14--17--16--14h12p14--------------------12-------------------|
D|---12-----------------------------------------------------------------|
A|----------------------------------------------------------------------|
E|----------------------------------------------------------------------|

Repeat twice, then

e|----------12------12------------12-----12---|
B|-----------------------------------12-------|
G|---12--14-----12---------13--14-------------|
D|--------------------------------------------|
A|--------------------------------------------|
E|--------------------------------------------|

e|----------------------------------------------------|
B|--15-15--14-12-14----15--14-12-14----15--14-12-14---|
G|----------------------------------------------------|
D|----------------------------------------------------|
A|----------------------------------------------------|
E|----------------------------------------------------|

e|-----12-----12------------17----|
B|------------------15-14---------|
G|--12-----14---------------------|
D|--------------------------------|
A|--------------------------------|
E|--------------------------------|

Guitar 2 - starts around 12 seconds in

e|------------------------------|
B|------------------------------|
G|--7---5-5-5-5--5-5-5-5---5----|
D|------------------------------|
A|------------------------------|
E|------------------------------|

e|----------------------------------------------------------------------------------------|
B|-------------8--10-------------------------10--9-----8--------10--9--7----7-------------|
G|---7--9--10--------------7--9--10----7------------9--------------------10---------------|
D|----------------------------------10----------------------------------------------------|
A|----------------------------------------------------------------------------------------|
E|----------------------------------------------------------------------------------------|

e|----------------------------------------------------------------------|
B|-------------8--10---------------------11--8-----8--------------------|
G|---7--9--10--------------7--9----7------------9----------10--9--7-----|
D|----------------------10------10--------------------------------------|
A|----------------------------------------------------------------------|
E|----------------------------------------------------------------------|

e|----------------------------------------|
B|----------------------------------------|
G|--9---9-9-9--9--9-----7---7-7-7--7--9---|
D|----------------------------------------|
A|----------------------------------------|
E|----------------------------------------|

e|----------------------------------------------------------------------|
B|----------------------------------------------------------------------|
G|--9---9-9-9--6--6--6-----7---7-7-7--6--6--6-----7---7-7-7--6--6--6----|
D|-------------------------------------------------------------------7--|
A|----------------------------------------------------------------------|
E|----------------------------------------------------------------------|

e|----------------------------------------------------------------------|
B|----------------------------------------------------------------------|
G|--------------------------------------7---7-7-7-6--6----6---6---------|
D|--7---7-7-7-7--7----9---9-9-9-9--9------------------------------7-----|
A|----------------------------------------------------------------------|
E|----------------------------------------------------------------------|
Login or Register to remove this ad.