Ads

Overworld 2 (The 7th Saga) Guitar Tab

Submitted: Oct 21, 2011 by BacardiBreezer

0
Download | Listen
Game: The 7th Saga
Composer(s): Norihiko Yamanuki
Style: 2 or more instruments, Transcription

AutoScroll: Slow | Medium | Fast
Overworld 2
The 7th Saga
Composer: Norihiko Yamanuki
Tabbed by Bacardibreezer 
10/21/11


Guitar 1, Lead

Rest two measures

e|--------------------|---------------|-------12------------------|
B|-------12------12~--|--------14~----|---15------14--12~-----L---|
G|-----------14-------|----12---------|---------------------------|
D|--14----------------|---------------|---------------------------|
A|--------------------|---------------|---------------------------|
E|--------------------|---------------|---------------------------|

e|--------------|----------------------|----------------------|
B|--14-15-------|----12----------------|----------------------|
G|--------14~---|--------12------------|----12----------------|
D|--------------|------------16--14~---|-------12-11~---------|
A|--------------|----------------------|-----------------14---|
E|--------------|----------------------|----------------------|

e|--------------------|---------------|-------12-------------------|
B|-------12------12~--|--------14~----|---15------14--12~------L---|
G|-----------14-------|--12-14--------|----------------------------|
D|--14----------------|---------------|----------------------------|
A|--------------------|---------------|----------------------------|
E|--------------------|---------------|----------------------------|

e|--------------|----------------|------------------------|
B|--14-15-------|--12--14--------|------12----------------|
G|--------14~---|----------12~---|---14----12-------------|
D|--------------|----------------|------------14~----L----|
A|--------------|----------------|------------------------|
E|--------------|----------------|------------------------|

e|--------------------------------------------|--------------12~----L----|
B|---12---14---16-----13----15-------13--12~--|-----------12-------------|
G|-----------------------13-------------------|--12-13-15----------------|
D|--------------------------------------------|--------------------------|
A|--------------------------------------------|--------------------------|
E|--------------------------------------------|--------------------------|

e|-----------------------------------|---------------------------|---------------|
B|--14-------------------------------|---------------------------|---------12~---|
G|-------13------15----16-14-13------|---------------------------|---14----------|
D|------------13----16----------13~--|----16----13---------14~---|---------------|
A|-----------------------------------|-------------14------------|---------------|
E|-----------------------------------|---------------------------|---------------|

Guitar 2

e|--------------------------|----------------------------|
B|--------------0-----------|----------------0-----------|
G|--0-----2-----------2-----|----0-----2-----------2-----|
D|--------------------------|----------------------------|
A|--------------------------|----------------------------|
E|--------------------------|----------------------------|  x5

e|--------------------------|
B|--------------------------|
G|--------------------------|
D|---4--------3-------2-----|
A|--------------------------|
E|--------------------------|

e|------------------------------------------------------------0--------L---|
B|---3---------2-----------0--------2-------0-------4----------------------|
G|----------------2--------------------------------------------------------|
D|-------------------------------------------------------------------------|
A|-------------------------------------------------------------------------|
E|-------------------------------------------------------------------------|
Login or Register to remove this ad.