Ads

History Maker (Yuri!!! on Ice) Guitar Tab

Submitted: Dec 26, 2016 by kakesama

0
Download | Listen
Game: Yuri!!! on Ice
Composer(s): Taro Umebayashi, Taku Matsushiba
Style: Arrangement, Fingerstyle

AutoScroll: Slow | Medium | Fast
History Maker 
Yuri!!! On Ice 
Composed by: Dean Fujioka
Based on piano arrangement by RekiFr (https://www.youtube.com/watch?v=7Gd8Y21sWBg)


Tempo 201
   H     E   E     Q    Q    Q      Q    Q    E   E     Q    Q    Q      Q    Q    Q
E|-2-----2---2---|-4----4----4----|-2----2----2---2---|-4----4----4----|-2----2----4----|
B|---------------|----------------|-------------------|----------------|----------------|
G|---------------|----------------|-------------------|----------------|----------------|
D|---------------|-2--------------|-------------------|----------------|----------------|
A|---------------|----------------|-------------------|-2--------------|----------------|
E|---------------|----------------|-0-----------------|----------------|-0--------------|


   W            Q    Q    Q      W            H     H      W            Q    Q    E   E           
E|-4----------|----------------|------------|------------|------------|------2----2---4---|
B|------------|-----------0----|-0----------|-0----------|------------|-------------------|
G|------------|----------------|------------|------------|------------|-------------------|
D|-2----------|------6---------|------------|-------4----|-4----------|-------------------|
A|------------|-4--------------|-4----------|------------|------------|-0-----------------|
E|-0----------|----------------|------------|-4----------|-4----------|-------------------|


   H     H      Q    Q    Q      W            Q    Q    Q      H     H      H     H
E|-4----------|------2----2----|-2----------|------4----7----|-7-----9----|-2-----2----|
B|-------0----|----------------|------------|----------------|------------|------------|
G|------------|----------------|------------|----------------|------------|------------|
D|------------|----------------|-2----------|----------------|------------|------------|
A|-0----------|----------------|------------|-4--------------|-4----------|------------|
E|------------|-0--------------|-0----------|----------------|------------|-4----------|


   H     H      W            Q    Q    Q      Q    Q    Q      Q    Q    Q      H     H
E|-2-----4----|-0----------|------4----5----|-7---------7----|-7----5----4----|-2-----0----|
B|------------|------------|----------------|----------------|----------------|------------|
G|------------|------------|----------------|----------------|----------------|------------|
D|------------|------------|----------------|-6---------6----|-6--------------|-------2----|
A|------------|-0----------|-0--------------|------6---------|----------------|-0----------|
E|------------|------------|----------------|-4--------------|----------------|------------|

   H     H      Q    Q    Q      Q    Q    Q      H     H      H     H      H     H
E|-2-----4----|----------------|----------------|------------|------------|------------|
B|------------|-0---------0----|-0--------------|------------|------------|-0-----0----|
G|------------|----------------|------2----1----|-------1----|------------|-1-----1----|
D|------------|-2---------2----|-2--------------|-4----------|-4----------|-1----------|
A|-0----------|------4---------|-----------2----|-4----------|------------|------------|
E|-------0----|----------------|----------------|------------|-------4----|------------|


   Q    Q    Q      H     H      Q    Q    Q      Q    Q    Q      Q    Q    Q
E|----------------|------------|----------------|----------------|----------------|
B|-0--------------|-7-----5----|----------------|-0---------0----|-0----2----4----|
G|-1----2----1----|------------|------2----2----|----------------|----------------|
D|----------------|------------|-----------2----|------4---------|----------------|
A|----------------|-0----------|-0--------------|-2---------2----|-2--------------|
E|----------------|------------|----------------|----------------|----------------|


   H     H      H     H      H     H      Q    Q    Q      H     H      Q    Q    Q
E|-0----------|-0----------|-0----------|-0----2----0----|-0----------|-2----0----2----|
B|------------|-------4----|------------|------0---------|-------0----|----------------|
G|------------|------------|-------2----|----------------|------------|-----------1----|
D|-------6----|------------|------------|----------------|------------|----------------|
A|------------|-4----------|-0----------|----------------|-4----------|----------------|
E|-4----------|-------0----|------------|----------------|------------|----------------|


   W            H     H      Q    Q    Q      Q    Q    Q      H     H      Q    Q    Q
E|-2----------|-2-----0----|-2----0----2----|-5----4----0----|-0----------|-0----2----0----|
B|------------|------------|----------------|----------------|-2-----0----|------0---------|
G|------------|------------|----------------|----------------|------------|----------------|
D|------------|------------|-4--------------|----------------|------------|----------------|
A|-2----------|------------|----------------|----------------|-0----------|----------------|
E|------------|------------|----------------|----------------|------------|----------------|


   H     H      Q    Q    Q      Q    Q    Q      Q    Q    Q      Q    Q    Q
E|-0----------|-2----0----2----|-2--------------|-2----2----0----|-2----0----2----|
B|-------0----|----------------|----------------|----------------|-2--------------|
G|------------|-----------1----|----------------|----------------|----------------|
D|------------|----------------|----------------|----------------|----------------|
A|-4----------|----------------|-2----2----2----|-2----2----2----|-2--------------|
E|------------|----------------|----------------|----------------|----------------|


   Q    Q    Q      Q    Q    Q      Q    E   E   Q      W            W  
E|-5----4----0----|-5----4----0----|-5----4-------0----|-4----------|------------|
B|----------------|-5--------------|-0-----------------|------------|------------|
G|----------------|----------------|-------------------|------------|------------|
D|----------------|----------------|----------2--------|-6----------|-6----------|
A|----------------|-0--------------|-0-----------------|------------|------------|
E|----------------|----------------|-------------------|-0----------|-0----------|


   W            H     H      Q    Q    Q      Q    Q    Q      Q    Q    Q      Q    E   E   Q
E|------------|-0-----4----|-2----0----2----|-5----4----0----|-5----4----0----|-5----4-------0----|
B|-0----------|------------|----------------|-5--------------|----------------|-0-----------------|
G|------------|------------|----------------|----------------|----------------|-------------------|
D|-1----------|-1----------|-4--------------|----------------|----------------|----------2--------|
A|-2----------|-2----------|----------------|----------------|-0--------------|-0-----------------|
E|------------|------------|----------------|----------------|----------------|-------------------|


   W            H     H      W            Q    Q    Q      Q    Q    Q      Q    Q    Q 
E|-2----------|-0-----2----|------------|-0----2----2----|-2----0----2----|-5----4----0----|
B|------------|------------|-0----------|----------------|-0----0----0----|-0----0----0----|
G|------------|------------|------------|-----------1----|----------------|----------------|
D|-2----------|------------|-4----------|----------------|-4--------------|----------------|
A|-4----------|-4----------|-2----------|-2--------------|----------------|----------------|
E|------------|------------|------------|----------------|----------------|----------------|


  Q     Q    Q      Q    Q    Q      Q    Q    Q      Q    Q    Q      H     H    
E|----------------|-0----2----0----|----------------|-2----0----2----|-2----------|
B|-----------0----|----------------|-----------0----|------2---------|------------|
G|----------------|----------------|----------------|----------------|------------|
D|-----------7----|----------------|------6---------|----------------|-------4----|
A|----------------|------0---------|-4--------------|----------------|-2----------|
E|-5----7---------|----------------|----------------|----------------|------------|


   Q    Q    Q      Q    Q    Q      Q    Q    Q      Q    Q    Q      Q    Q    Q
E|-2----0---------|-2----0----2----|-5----4----0----|----------------|-0----2----0----|
B|-4---------4----|-0----0----0----|-0----0----0----|-2--------------|-0--------------|
G|----------------|----------------|----------------|-----------2----|------2---------|
D|----------------|-2---------2----|-2----2---------|------2---------|----------------|
A|-2--------------|----------------|----------------|-0--------------|----------------|
E|----------------|----------------|----------------|----------------|----------------|


   H     H      Q    Q    Q      Q    Q    Q      H     H      Q    Q    Q      Q    Q    Q
E|-0----------|-2----0----2----|-2---------2----|-2-----0----|-2----0----2----|-5----4----0----|
B|-------0----|----------------|-0--------------|-0----------|-0----0----0----|-0----0----0----|
G|-1----------|-1--------------|-----------4----|------------|----------------|----------------|
D|-------1----|----------------|------4---------|-------1----|----------------|----------------|
A|------------|----------------|-2--------------|------------|-2---------2----|-2----2---------|
E|------------|----------------|----------------|------------|----------------|----------------|


   H     H      Q    Q    Q      Q    Q    Q      Q    Q    Q      Q    Q    Q
E|-2-----0----|-2----0----2----|-5----4----0----|----------------|-2----2----0----|
B|-4----------|-0---------4----|-4----4---------|-0----0----0----|-0----0---------|
G|------------|----------------|----------------|-4----4----4----|----------------|
D|------------|----------------|----------------|----------------|----------------|
A|------------|-2--------------|-2--------------|-2----2----2----|-2----2----2----|
E|------------|----------------|----------------|----------------|----------------|


   Q    Q    Q      Q    Q    Q      W
E|-2----0----2----|-5----4----0----|-0----------|
B|-0---------0----|-0----0---------|------------|
G|----------------|----------------|------------|
D|----------------|----------------|-2----------|
A|-2----2----2----|-2----2----2----|------------|
E|----------------|----------------|-0----------|



Duration Legend
---------------
W - whole
H - half
Q - quarter
E - 8th
S - 16th
T - 32nd
X - 64th
. - note dotted
|-n-|  - n-tuplets


Tablature Legend
----------------
L - tied note

Login or Register to remove this ad.