Ads

Kataware Doki (Your Name) Guitar Tab

Submitted: Oct 08, 2016 by (Last updated: Feb 12, 2017)

5
Average: 5 (4 votes)
Download | Listen
Game: Your Name
Composer(s): Radwimps
Style: Arrangement, Artificial harmonics, Fingerstyle

AutoScroll: Slow | Medium | Fast
Title: Kimi no Na wa - Kataware Doki
SubTitle: Arranged by Nicholas Norrie
Tempo = 60
Steel Guitar

Legend
L - tied note
x - dead note
h - hammer on/pull off
b - bend
s - slide
~ - vibrato
g - ghost note
> - accentuated note
t - trill
M - palm mute
. - staccato
P - popping (bass)
S - slapping (bass)
+ - tapping
W - wide vibrato
< - fade in
w - whammy bar
= - tremolo picking
v - brush up
^ - brush down
V - pick stroke up
n - pick stroke down

Capo. fret 5
Tuning CGDGBE

     ^          ^          ^                        
E |----------|----------|----------|-------|-------|
B |--3-------|--0-------|--3--1----|-------|-------|
G |-----2----|--0-------|--4-------|--0L---|--0----|
D |--2-------|-----0----|-----3----|-------|-------|
G |-----5----|--0-------|----------|-------|-------|
C |--4-------|----------|--4--5----|-------|-------|

                                                     
----------------------------------------------------|
--3-----------3--------3--3-----0-------------------|
--------------------------------------2-----2--0----|
--2-------------------------------------------------|
--------------------------5-------------------------|
----------------------------------------------------|

                             
----------------------------|
--0-------------------------|
-----------------------0----|
--------------0-------------|
--0-------------------------|
----------------------------|

                                                     
--------------------------3-----2--0-----------0----|
--3-----------3-----------------------3-----3-------|
-----------------------0----------------------------|
--2-------------------------------------------------|
--------------------------5-------------------------|
----------------------------------------------------|

                                                                             
----------------------------------------------------------------------------|
--3-----------------0-----1-----0-------------------------------------------|
--------------------------------------2--------------------------0----------|
--5-----------------------------------0-------------------------------------|
----------------------------------------------------------------------------|
----------------------------------------------------------------------------|

                                                     
----------------------------------------------------|
--3-----------3--------3--3-----0-------------------|
--------------------------------------2-----2--0----|
--2-------------------------------------------------|
--------------------------5-------------------------|
----------------------------------------------------|

                                                     
----------------------------------------------------|
--0-----------------------------------------0-------|
--------------------------------------0--2-----2L---|
--------------------------------0-------------------|
--0-------------------------------------------------|
--------------------------2-------------------------|

                                                     
----------------------------------------------------|
--------------------------------------------0-------|
--2--0--0-----0-----0--0--------------0--2-----2L---|
--2--------2--------------------2-------------------|
--------------------------5-------------------------|
----------------------------------------------------|

                                                     
----------------------------------------------------|
--------------3-----------------------------0-------|
--2--0--0-----------0--2--------------0--2-----2L---|
--------------------------------0-------------------|
--0-------------------------------------------------|
--------------------------2-------------------------|

                                                     
----------------------------------------------------|
--------------------------------------------0-------|
--2--0--0-----0-----0--0--------------0--2-----2L---|
--2--------2--------------------2-------------------|
--------------------------5-------------------------|
----------------------------------------------------|

                                                     
----------------------------------------------------|
--------------3-------------------------------------|
--2-----0-----------0--2-----------------0--2--0L---|
----------------------------------------------------|
--0-------------------------------------------------|
--------------------------2L----------2-------------|

                                          ^  ^       ^     
----------------------------|-----3----|----------|-------|
-----------3--------0L------|--0-------|----------|-------|
--0--------0--------0L------|--0-------|--0--2----|--0----|
----------------------------|----------|--2-------|--0----|
--------------------0L------|--0-------|-----5----|--0----|
--4--------5----------------|----------|--4--5----|-------|

                                                     
----------------------------------------------------|
--3-----------3--------3--3-----0-------------------|
--------------------------------------2-----2--0----|
--------2-------------------------------------------|
--------------------------------------5-------------|
--4-----------------------0-------------------------|

                                                     
----------------------------------------------------|
--0-------------------------------------------------|
--------------0-----------------------0-----0g-0g---|
--------------------------------0-----------0g-0g---|
--0-------------------------------------------------|
----------------------------------------------------|

                                                     
--------------------------3-----2--0-----------0----|
--3-----------3-----------------------3-----3-------|
--0--------------------0----------------------------|
--------2-------------------------------------------|
--------------------------------------5-------------|
--4-----------------------0-------------------------|

                                                                                
--------------------------------------------------------------------------------
--3-----------------------------------0-----------1-----------0-----------------
--------------------------------------0-----------------------------------2-----
-----------------------------5--------------------------------------------0-----
--0-----------------------------------------------------------------------------
--------------------------------------------------------------------------2-----

                                                                     
--------------------------------------------------------------------|
--------------------------------------------------------------------|
------------------------------------------------0-------------------|
------------------------------0-------------------------------------|
--------------------------------------------------------------------|
--------------------------------------------------------------------|

                                                     
----------------------------------------------------|
--3-----------3--------3--3-----0-------------------|
--------------0-----------------------2-----2--0----|
--------2-------------------------------------------|
--------------------------------------5-------------|
--4-----------------------0-------------------------|

                                                     
----------------------------------------------------|
--0-----------------------------------------0-------|
--------------0-----------------------0--2-----2L---|
--------------------------------0-------------------|
--0-------------------------------------------------|
--------------------------2-------------------------|

                                                     
----------------------------------------------------|
--------------------------------------------0-------|
--2--0--0-----0-----0--0--------------0--2-----2L---|
-----------2--------------------2-------------------|
--------------------------------------5-------------|
--4-----------------------0-------------------------|

                                                     
----------------------------------------------------|
--------------3-----------------------------0-------|
--2-----0-----------0--2--------------0--2-----2L---|
-----0--------------------------0-------------------|
--0-------------------------------------------------|
--------------------------2-------------------------|

                                                     
----------------------------------------------------|
--------------------------------------------0-------|
--2--0--0-----0-----0--0--------------0--2-----2L---|
-----------2--------------------2-------------------|
--------------------------------------5-------------|
--4-----------------------0-------------------------|

                                                     
----------------------------------------------------|
--------------3-----------------------------0-------|
--2-----0-----------0--2--------------0--2-----2L---|
-----0--------------------------0-----0-------------|
--0-----------------------------------2-------------|
--------------------------2-----------2-------------|

                                                     
----------------------------------------------------|
--------------------------------------------0-------|
--2--0--0-----0-----0--0--------------0--2-----2L---|
--2--------2--2-----2-----2-----2-----2-------------|
--4-----------4-----4-----0-----------0-------------|
--4-----------4-----4-----0-----------0-------------|

                                                     
----------------------------------------------------|
--------------3-----------------------------0-------|
--2-----0-----0-----0--2--------------0--2-----2L---|
--0--0--------0-----0-----0-----0-----0-------------|
--0-----------0-----0-----2-----------2-------------|
--------------------------2-----------2-------------|

                                                     
----------------------------------------------------|
--------------------------------------------0-------|
--2--0--0-----0-----0--0--------------0--2-----2L---|
--2--------2--2-----2-----2-----2-----2-------------|
--4-----------4-----4-----0-----------0-------------|
--4-----------4-----4-----0-----------0-------------|

                                                     
----------------------------------------------------|
--------------3-----------------------------0-------|
--2-----0-----0-----0--2--------------0--2-----0----|
--0--0--------0-----0-----0-----0-----0-------------|
--0-----------0-----0-----2-----------2-------------|
--------------------------2-----------2-------------|

                                                     
--3--2-----0-----------0----------------------------|
--0-----3--------3--0--------3--0-----------0-------|
--0-----------0-----------0-----------0--2-----2----|
--------------2-----------2-----------2-------------|
--4-----------4-----------0-----------0-------------|
--4-----------4-----------0-----------0-------------|

                                                     
--3--2-----0-----2-----0-----2----------------------|
--0-----3-----------3-----------3-----------0-------|
--0-----------0-----------0-----------0--2-----0----|
--0-----------0-----------0-----------0-------------|
--0-----------0-----------2-----------2-------------|
--------------------------2-----------2-------------|

                                                     
--3-----3--10-------7-------------------------------|
--0-----0-----------0-----------0-----0-----0--0----|
--0-----0-----------0-----------0-----0-----0--0----|
--2-----2-----2-----2-----------2-----2-----2--2----|
--4-----4-----4-----0-----------0-----0-----0--0----|
--4-----4-----4-----0-----------0-----0-----0--0----|

                                                     
--5-----------------3-------------------------------|
--0-----0--3----------------------------------------|
--0-----0-----------0-----------0-----0-----0--0----|
--0-----0-----------0-----------0-----0-----0--0----|
--0-----0-----------2-----------2-----2-----2--2----|
--------------------2-----------2-----2-----2--2----|

                                                     
--7--------5--------7-------------------------------|
--0-----0-----------0-----------0-----0-----0--0----|
--0-----0-----------0-----------0-----0-----0--0----|
--2-----2-----------2-----------2-----2-----2--2----|
--4-----4-----------0-----------0-----0-----0--0----|
--4-----4-----------0-----------0-----0-----0--0----|

                                                     
--5-----------------3-------------------------------|
--0-----0--3----------------------------------------|
--0-----0-----------0-----------0--------0--2--0L---|
--0-----0-----------0-----------0-----0-------------|
--0-----0-----------2-----------2-----2-------------|
--------------------2-----------2-----2-------------|

                                       ^  ^       ^
----------------------------|-------|----------|-------||
-----------3--------0L------|--0----|----------|--0----||
--0--------0--------0L------|--0----|--0--2----|--0----||
----------------------------|-------|--2-------|--0----||
--------------------0L------|--0----|-----5----|--0----||
--4--------5----------------|-------|--4--5----|-------||

Login or Register to remove this ad.

1 comment on Kataware Doki

big cummies?

5

this made me nut on my guitar :s