Ads

Wish (Yosuga no Sora) Guitar Tab

Submitted: Oct 09, 2014 by scarecrowlol (Last updated: Mar 31, 2021)

5
Average: 5 (8 votes)
Download | Listen
Game: Yosuga no Sora
Composer(s): Bruno Wen-Li, Manabu Miwa
Style: Arrangement, Fingerstyle

Click here for a video example.

AutoScroll: Slow | Medium | Fast
Title: Wish
SubTitle: Yosuga No Sora
Artist: Bruno Wen-Li & Manabu Miwa
Tabber: Mitch Jackson
Tempo = 46
T/S = 3/4


Left hand fingering is included in GP file as a guide

---------
LEGEND 
---------
L = Hold Previous Note
ferm = Hold Note Longer
(?) = Ghost Note
<?> = Natural Harmonic


  ♪♫•*¨*•.¸¸ CAPO 2 ¸¸.•*¨*•♫♪


     Q     E  E.  S S S      E.  S S S Q.            Q     E  Q     E       E  E  E  E  E  E
E |--------0--------------|------------3----------|--------0-------------|----------------------|
B |-----------0---1-0-----|------0-1-3------------|-----------0----------|-----------------0----|
G |--2----------------0---|--2--------------------|--2--------------0----|--2-----2--1--2-------|
D |--3--------2-----------|--0--------------------|--3--------2----------|-----4-----2----------|
A |-----------------------|------------3----------|----------------------|--5-------------------|
D |-----------------------|-----------------------|----------------------|----------------------|

                                                                                     ferm
     E  E  E  E  S S S S      E  S S S E  E  E       E  E  E  E  E  E       E  E  E  Q.
  |--------0---------------|-----------3----------|--------0--3----------|--------0-------------|
  |-----1-----0--0-1-0-----|-----0-1-3-------1----|-----1--------0-------|-----3-----1----------|
  |--2-----------------0---|--2-----------0-------|--2--------------0----|--2-------------------|
  |--3--------2------------|--0-------------------|--3--------2----------|----------------------|
  |------------------------|-----------3----------|----------------------|----------------------|
  |------------------------|----------------------|----------------------|----------------------|

  1/4         3/4
     E  E       S S E  S S S S E  E       S S E  E  S S E  S S      S S S S S S S S E  S S
  |----------|-------------------------|--0---3------------------|--0-----0---0--------------|
  |----------|------1----------3--3----|------0--0--1--(0)---3---|-----(1)--1---3---0--1-3---|
  |-----0----|--2------0-2-0---0-------|------2---------5--5-----|------2-----------0--------|
  |--2-------|------2----------2-------|----0---------2-5--------|------3---------2----------|
  |----------|----3----------2---------|------------0------------|----0----------------------|
  |----------|--3----------2-----------|--5----------------------|--0-----------2------------|


     S S E  E  S S S S S S      S S E  S S S S E  E       S S E  E  S S E   E       S S E  S S S S E  S S
  |--0---1--3--4---5---7-----|--5------3-5-3-----------|--0---3--7--8---10-<12>--|--------------------------|
  |--------------------------|------5----------3--3----|------0---------0--------|------1--3-1----(3)-------|
  |------2-------------------|------5----------0-------|------2-------5----------|------2------4---4----4---|
  |----3-------------2-------|------3----------2-------|----0--------------------|------3----------5--5-----|
  |--------------2-------2---|----3----------2---------|------------0------------|----0----------2----------|
  |--3---------2-------------|--3----------2-----------|--5----------------------|--0----------2------------|


     S S S S S S S S S S S S      S S E  S S S S E  E       S S Q     S S Q          S S S S S S S S S S S S
  |----------------------------|--0----------------------|------------------------|--0-----0-------------------|
  |--1-----1-0-------3-0-------|------1--3-1-0---0-------|------0---------0-------|----------3-1-0---3-0-------|
  |------2-----2-1---2---1-----|-----------------0-------|------5---------5-------|----------------0-----0-----|
  |----2-----------2-------2---|------2--------2----2----|----2-5-------2-5-------|------3-------2---------2---|
  |----------------------------|----3--------------------|--0---------0-----------|----0-----------------------|
  |--3-----------2-------------|--3----------2-----------|------------------------|--0-------------------------|


     S S S S S S S S S S S S      S S S S S S S S S S S S      S S S E.  S S S E.       S S S E.  S S S E.
  |--0-----0---0-3---3---------|--0-----0---5-7-8-7-----0---|--5---------------0-----|------------------0-----|
  |----------3-----0---3-0-----|----------3-------0-8-------|----0---3-----0---------|----0---3-----0---------|
  |------2-----------0---------|------2---------0-----7-----|------5---------5-------|------5---------5-------|
  |--------------2---------2---|----------------------------|------------7-----------|--7---------7-----------|
  |----0-----------------------|----3-----------------------|--0---------------------|------------------------|
  |--3-------------------------|--3-----------5-------------|------------------------|------------------------|


     H.
  |--L-------------------||
  |--L-------------------||
  |--L-------------------||
  |--L-------------------||
  |----------------------||
  |----------------------||


Alternative method for last bar, easier to play but slightyly less 'full' sounding chord

     S S S E.  S S S E.
  |------------------0-----|
  |----0---------0---------|
  |------5-7-------5-------|
  |--7---------7-----------|
  |------------------------|
  |------------------------|
Login or Register to remove this ad.

4 comments on Wish

This is one of my favorites

5

This is one of my favorites to play right now. Thanks for the tab :)

Glad you like it :3 The YnS

Glad you like it :3 The YnS soundtrack is one i can come back to time and time again and never get sick of it, maybe one day i'll have tabbed out the whole OST ;)

I agree

I agree with you there, it's one of the overall best soundtracks I've heard :D
Having tabs for the entire soundtrack would be sweet! Godspeed to ya!

I wonder how much a chance there is for a Pixel Mixers' Yosuga no Sora Album? *evil grin*

Agreed