Ads

Wish (Yosuga no Sora) Guitar Tab

Submitted: Jan 09, 2013 by scarecrowlol

4.857145
Average: 4.9 (7 votes)
Download | Listen
Game: Yosuga no Sora
Composer(s): Bruno Wen-Li, Manabu Miwa
Style: Arrangement, Fingerstyle

This song is also called 願い

AutoScroll: Slow | Medium | Fast
Title: Wish
SubTitle: Yosuga No Sora
Artist: Bruno Wen-Li, Manabu Miwa
Tabber: Mitch Jackson
Tempo = 48
T/S = 6/4



     Q     E  E.  S  S S  E.  S S  S  Q.          Q     E  Q     E  E  E  E  E  E  E       E  E  E  E  E S  S S  E.  S S  S  E  E  E
E |--7-----14-9---10-9----7---9-10-12-17-------|--7-----14-9-----5--7--------6--7--9----|--------14-9----10-9----7---9-10-12-17---------|
B |--------------------10----------------------|--------------------------0-------------|--12-----------------10------------------------|
G |--0-----------------------------------------|--0-----------------------------6-------|--0--------------------------------------------|
D |-----------------------------------0--------|-----------------------6-----4----------|-----12-------11--------------------0-----12---|
A |-----------9-----------7--------------------|-----------9--------7-------------------|-----------9------------7--------------12------|
E |--------------------------------------------|----------------------------------------|-----------------------------------------------|


                                FERMATA---> T/S = 4/4
     E  E  E  E  E  E  E  E  E  Q.            E  E  S S E  S S S S E  E      S S E  E  S S E  S S S S S S     S S S S E  S S S S E  E  S S
  |--------14-17-------7-------------------|-----5--7------5-7-5----------|--2---5--------------0-2-----2--|----2----------0-2---3--5--6----|
  |--12----------14-10----5--7-------------|--7--------------------2--5---|------2--2--3------3-------3----|--3---5---2--3-------0----------|
  |--0-----------------4--------7----------|------------7----------2------|------2---------6----------0----|-------------------0------------|
  |-----12---------------------------------|------------9----------4------|----2---------4----------2------|--------4--------------------8--|
  |----------------------------------------|----------9----------4--------|--0---------2-------------------|---------------------------9----|
  |-----------14---------------------------|--------7----------2----------|-----------------------0--------|------2----------3--------------|



     S S S S S S E  S S S S E  E      S S E  E  S S E  E  S S E       S S S S E  S S S S S S S S S S     S S S S S S E  S S S S E  E
  |--7---9---7------5-7-5----------|--2---5--9--10--12-14----------|--0-------------------------------|----------2------0----------2----|
  |-------------------------2--5---|------2------------------------|----3-2--------2-3-----3----------|--0---2-------3----3-2-----------|
  |----6---------7----------2------|------2-------------------7----|----------2--2-------4---6-4-3----|--------------0----------2-------|
  |--------8-----9----------4------|----2---------------------5----|----------4--------4--------------|----4-------0------------4-------|
  |------------9----------4--------|--0-----------9---------7------|--------4----------------------4--|--------4--------------4---------|
  |----------7----------2----------|------------7---------0--------|------2----------3-----------2----|----------3----------2-----------|



     S S Q.        S S Q.             S S S S S S S S S S S S S S S S     S S S S S S S S S S S S S S S S     S S S S S S S E.  S S S E.
  |--------------------------------|-----------------------------------|------5---------------------7-9-10-|--9-5---0-2-----0---------2---|
  |------3-------------3-----------|--7-----7---------5-------7-----7--|----7-----5-------7-----7----------|------3-----2-3-------2-3-----|
  |------6-------------6-----------|------9---9-7-6-----7-6-------9----|--9---------7-6-------9---9--------|----------4---------4---------|
  |----4-------------4-------------|----9-----------7-------7---9------|--------7-------7---9---------0----|------------------------------|
  |--2-------------2---------------|--7-----------5-----------7--------|------5-----------7----------------|------------------------------|
  |--------------------------------|-----------------------------------|-----------------------------------|------------------------------|



     S S S E.  S S S S  Q.
  |--------0---------2L-L----------||
  |----2-3-------2-3---------------||
  |--4---------4-------------------||
  |--------------------------------||
  |--------------------------------||
  |--------------------------------||

Login or Register to remove this ad.

3 comments on Wish

Very nice tab. It is always a

Very nice tab. It is always a pleasure to see a post of yours.

Ty :3 This ones a personal

Ty :3 This ones a personal favorite, but it can be challenging in parts with the finger positions

Thanks

Thank you, I was looking for tabs for a long time.
Keeping posting :p

Muito obrigado.