Ads

Unbroken Heart (Yosuga no Sora) Guitar Tab

Submitted: Nov 15, 2021 by scarecrowlol (Last updated: Nov 15, 2021)

5
Average: 5 (3 votes)
Download | Listen
Game: Yosuga no Sora
Composer(s): Bruno Wen-Li, Manabu Miwa
Style: Arrangement, Fingerstyle

Click here for a video example.

AutoScroll: Slow | Medium | Fast
Title: Unbroken Heart
SubTitle: Yosuga No Sora
Artist: Bruno Wen-Li & Manabu Miwa
Tabber: Mitch Jackson
Tempo = 140
T/S = 3/4

Left hand fingering is included in GP file as a guide

---------
LEGEND 
---------
h = Hammer On
p = Pull Off
L = Hold Previous Note


       
     Q     E  E  E  E       Q     E  E  E  E       Q     E  E  E  E       Q     E  E  E  E
E |--------5-----5-------|--------5-----5-------|--------3-----3-------|--------3-----3-------|
B |--------6-----6-------|--------6-----6-------|--------5-----5-------|--------5-----5-------|
G |--7-------------------|--7-------------------|--5-------------------|--5-------------------|
D |----------------------|----------------------|----------------------|----------------------|
A |----------------------|----------------------|----------------------|----------------------|
E |----------------------|----------------------|----------------------|----------------------|

     Q     E  E  E  E       Q     E  E  E  E       Q     E  E  E  E       Q     E  E  E  E
  |--------1-----1-------|--------1-----1-------|--------0-----0-------|--------0-----0-------|
  |--------3-----3-------|--------3-----3-------|--------2-----2-------|--------2-----2-------|
  |--3-------------------|--3-------------------|--2-------------------|--2-------------------|
  |----------------------|----------------------|----------------------|----------------------|
  |----------------------|----------------------|----------------------|----------------------|
  |----------------------|----------------------|----------------------|----------------------|

     Q     E  E  E  E       Q     E  E  E  E       Q     E  E  E  E       Q     E  E  E  E
  |--------5-----5-------|--------5-----5-------|--------3-----3-------|--------3-----3-------|
  |--3-------------------|--3-------------------|--1-------------------|--1-------------------|
  |--------2-----2-------|--------2-----2-------|--------0-----0-------|--------0-----0-------|
  |--0-------------------|--0-------------------|----------------------|----------------------|
  |----------------------|----------------------|--3-------------------|--3-------------------|
  |----------------------|----------------------|----------------------|----------------------|

     Q     E  E  E  E       Q     E  E  E  E       Q     E  E  E  E       Q     E  E  E  E
  |--------1-----1-------|--------1-----1-------|--------0-----0-------|--------0-----0-------|
  |----------------------|----------------------|----------------------|----------------------|
  |--3-----2-----2-------|--3-----2-----2-------|--2-----0-----0-------|--2-----0-----0-------|
  |----------------------|----------------------|----------------------|----------------------|
  |--1-------------------|--1-------------------|--0-------------------|--0-------------------|
  |----------------------|----------------------|----------------------|----------------------|

     E  E  E  E  Q          Q     E  E  E  E       Q     E  E  E  E       Q     E  E  E  E
  |-----------0--1-------|--1--------3--5--1----|--3--------5--3--1----|--0-------------------|
  |--3p-2--3-------------|--------3-------------|----------------------|--------1-----1-------|
  |--------2-----2-------|--------2-------------|--------0-----0-------|--------0-----0-------|
  |--0-------------------|--0-------------------|----------------------|----------------------|
  |----------------------|----------------------|--3-------------------|--3-------------------|
  |----------------------|----------------------|----------------------|----------------------|

     E  E  E  E  Q          Q     Q     Q          Q     E  E  E  E       Q     E  E  E  E
  |-----------0--1-------|--5-----1-----8-------|--3-------------------|--5-------------------|
  |--3p-2--3-------------|----------------------|--------2-----2-------|--------2-----2-------|
  |--------2-----2-------|--------2-------------|--------0-----0-------|--------0-----0-------|
  |----------------------|----------------------|----------------------|----------------------|
  |--1-------------------|--1-------------------|--0-------------------|--0-------------------|
  |----------------------|----------------------|----------------------|----------------------|

     E  E  E  E  Q          Q     E  E  E  E       Q     E  E  E  E       Q     E  E  E  E
  |-----------0--1-------|--1--------3--5--1----|--3--------5--3--1----|--0-------------------|
  |--3p-2--3-------------|--------3-------------|----------------------|--------1-----1-------|
  |--------2-----2-------|--------2-------------|--------0-----0-------|--------0-----0-------|
  |--0-------------------|--0-------------------|----------------------|----------------------|
  |----------------------|----------------------|--3-------------------|--3-------------------|
  |----------------------|----------------------|----------------------|----------------------|
 
     Q     Q     Q          Q     Q     Q          Q     E  E  E  E       Q     E  E  E  E
  |--1-----------1-------|--0-----------0-------|--------5-----5-------|--------5-----5-------|
  |--------3-------------|--------2-------------|--3-------------------|--3-------------------|
  |--------2-----2-------|--------0-----0-------|--------2-----2-------|--------2-----2-------|
  |----------------------|----------------------|--0-------------------|--0-------------------|
  |--1-------------------|--0-------------------|----------------------|----------------------|
  |----------------------|----------------------|----------------------|----------------------|

     Q     E  E  Q          Q     E  E  E  E       T T E.  Q     Q          Q     E  E  E  E
  |--2--------3--5-------|----------------------|------------------------|----------------------|
  |--------3-----3-------|--1-------------------|--0h1p0---------0-------|--------2-----2-------|
  |--------2-------------|--------2-----2-------|----------0-----0-------|--2-----2-----2-------|
  |--0-------------------|--------3-----3-------|----------0-----0-------|----------------------|
  |----------------------|----------------------|------------------------|--0-------------------|
  |----------------------|--1-------------------|--3---------------------|----------------------|

     Q     E  E  Q          Q     Q     Q          Q     E  E  Q          Q     E  E  E  E
  |--2--------0----------|--1-----0-------------|-----------0--1-------|--0-------------------|
  |--------3-----3-------|--------------1-------|--3-------------------|--------2-----2-------|
  |--------2-----2-------|--------2-----2-------|--------0-----0-------|--------2-----2-------|
  |--0-------------------|--------3-----3-------|--------0-----0-------|----------------------|
  |----------------------|----------------------|----------------------|--0-------------------|
  |----------------------|--1-------------------|--3-------------------|----------------------|

     H.                     H.                     E  E  E  E  Q          Q     E  E  E  E
  |----------------------|----------------------|-----------0--1-------|--1--------3--5--1----|
  |----------------------|----------------------|--3p-2--3-------------|--------3-------------|
  |--2~~~~~~~~~~~~~~~~~~~|~~L~~~~~~~~~~~~~~~~~~~|--------2-----2-------|--------2-------------|
  |--2~~~~~~~~~~~~~~~~~~~|~~L~~~~~~~~~~~~~~~~~~~|--0-------------------|--0-------------------|
  |----------------------|----------------------|----------------------|----------------------|
  |----------------------|----------------------|----------------------|----------------------|

     Q     E  E  E  E       Q     E  E  E  E       E  E  E  E  Q          Q     Q     Q
  |--3--------5--3--1----|--0-------------------|-----------0--1-------|--5-----1-----8-------|
  |----------------------|--------1-----1-------|--3p-2--3-------------|----------------------|
  |--------0-----0-------|--------0-----0-------|--------2-----2-------|--------2-------------|
  |----------------------|----------------------|----------------------|----------------------|
  |--3-------------------|--3-------------------|--1-------------------|--1-------------------|
  |----------------------|----------------------|----------------------|----------------------|

     Q     E  E  E  E       Q     E  E  E  E       E  E  E  E  Q          Q     E  E  E  E
  |--3-------------------|--5-------------------|-----------0--1-------|--1--------3--5--1----|
  |--------2-----2-------|--------2-----2-------|--3p-2--3-------------|--------3-------------|
  |--------0-----0-------|--------0-----0-------|--------2-----2-------|--------2-------------|
  |----------------------|----------------------|--0-------------------|--0-------------------|
  |--0-------------------|--0-------------------|----------------------|----------------------|
  |----------------------|----------------------|----------------------|----------------------|

     Q     E  E  E  E       Q     E  E  E  E       S E.  Q     Q          Q     Q     Q
  |--3--------5--3--1----|--0-------------------|--0h1---0-------------|--0-------------------|
  |----------------------|--------1-----1-------|--------------3-------|--------------2-------|
  |--------0-----0-------|--------0-----0-------|--------2-----2-------|--------2-----2-------|
  |----------------------|----------------------|--------3-----3-------|----------------------|
  |--3-------------------|--3-------------------|--1-------------------|--0-----4-----4-------|
  |----------------------|----------------------|----------------------|----------------------|

     Q     E  E  E  E       Q     E  E  E  E       Q     Q     Q          Q     E  E  E  E
  |--------1-----1-------|--------1-----1-------|--------------5-------|--0--------1--0-------|
  |--3-----3-----3-------|--------3-----3-------|--3-----------3-------|--------1-----1--1----|
  |--------2-----2-------|--------2-----2-------|--------2-----2-------|--------0-----0-------|
  |--0-------------------|--0-------------------|--0-------------------|----------------------|
  |----------------------|----------------------|----------------------|--3-------------------|
  |----------------------|----------------------|----------------------|----------------------|

     Q     E  E  E  E       Q     E  E  E  E       Q     Q     Q          Q     Q     Q
  |-----------0--1--3----|--5-------------------|--------------5-------|--8-----0-------------|
  |--3-------------------|--------2-----2-------|--3-----------3-------|--------1-----1-------|
  |--------2-----2-------|--------0-----0-------|--------2-----2-------|--------2-------------|
  |--------3-----3-------|----------------------|----------------------|----------------------|
  |--1-------------------|--0-------------------|--1-------------------|--0-------------------|
  |----------------------|----------------------|----------------------|----------------------|

     Q     E  E  E  E       Q     E  E  E  E       Q     Q     Q          Q     E  E  E  E
  |----------------------|--------0-----0-------|--------------5-------|--0--------1--0-------|
  |--3-----0-----0-------|--------2-----2-------|--3-----------3-------|--------1-----1--1----|
  |--------0-----0-------|--------2-----2-------|--------2-----2-------|--------0-----0-------|
  |----------------------|----------------------|--0-------------------|----------------------|
  |----------------------|--0-------------------|----------------------|--3-------------------|
  |--3-------------------|----------------------|----------------------|----------------------|

     Q     E  E  E  E       Q     E  E  E  E       Q     Q     Q          Q     Q     Q
  |-----------0--1--3----|--5-------------------|--------------5-------|--8-----0-------------|
  |--3-------------------|--------2-----2-------|--3-----------3-------|--------1-----1-------|
  |--------2-----2-------|--------0-----0-------|--------2-----2-------|--------2-------------|
  |--------3-----3-------|----------------------|----------------------|----------------------|
  |--1-------------------|--0-------------------|--1-------------------|--0-------------------|
  |----------------------|----------------------|----------------------|----------------------|

     Q     E  E  E  E       Q     E  E  E  E       Q     E  E  E  E       Q     E  E  E  E     
  |--------5-----5-------|--------5-----5-------|--------5-----5-------|--------5-----5-------|
  |--3-----3-----3-------|--3-----3-----3-------|--3-----3-----3-------|--3-----3-----3-------|
  |--------2-----2-------|--------2-----2-------|--------2-----2-------|--------2-----2-------|
  |--0-------------------|--0-------------------|--0-------------------|--0-------------------|
  |----------------------|----------------------|----------------------|----------------------|
  |----------------------|----------------------|----------------------|----------------------|


  |----------------------||
  |----------------------||
  |----------------------||
  |----------------------||
  |----------------------||
  |----------------------||
Login or Register to remove this ad.