Ads

So Sweet Sorrrow (Yosuga no Sora) Guitar Tab

Submitted: Aug 21, 2021 by scarecrowlol (Last updated: Aug 22, 2021)

5
Average: 5 (2 votes)
Download | Listen
Game: Yosuga no Sora
Composer(s): Bruno Wen-Li, Manabu Miwa
Style: Arrangement, Fingerstyle

Click here for a video example.

AutoScroll: Slow | Medium | Fast
Title: So Sweet Sorrow
SubTitle: Yosuga No Sora
Artist: Bruno Wen-Li & Manabu Miwa
Tabber: Mitch Jackson
Tempo = 82
T/S = 3/4

Left hand fingering is included in GP file as a guide

---------
LEGEND 
---------
h = Hammer On
p = Pull Off
L = Hold Previous Note
^ = Upstroke


    ♪♫•*¨*•.¸¸ CAPO 2 ¸¸.•*¨*•♫♪


     E  E  E  E  E  E       E  E  E  Q.            E  E  E  E  E  E       E  E  E  Q.    
E |--------5--4-----0----|--2-------------------|--------5--4-----0----|--2-------------------|
B |--------------2-------|-----------2----------|--------------2-------|-----------2----------|
G |-----2----------------|--------2-------------|-----2----------------|--------2-------------|
D |----------------------|-----0----------------|----------------------|-----0----------------|
A |--0-------------------|----------------------|--0-------------------|----------------------|
D |----------------------|--0-------------------|----------------------|--0-------------------|


     H           Q          E  E  E  E  T T S E       E  E  E  E  E  E       E  E  E  E  E  E
  |--L-------------------|-----------0-------------|----------------------|----------------------|
  |--L-------------------|--2-----------0h2p0------|-----------2----------|----------------------|
  |--L-------------------|--------2----------------|--2-----1-----2-------|-----------2----------|
  |--L-----------2-------|-----2--------------2----|-----2-----------2----|--4-----4-----4-------|
  |----------------------|--0----------------------|--0-------------------|-----0-----------5----|
  |--L-------------------|-------------------------|----------------------|--0-------------------|


     E  E  E  E  E  E       E  E  E  E  T T S E       E  E  E  E  E  E       E  E  E  E  E  E 
  |--------------0-------|-----------0-------------|----------------------|--0-------------------|
  |-----------2----------|--2-----------0h2p0------|-----------2----------|----------------------|
  |--------------2-------|--------2----------------|--2-----1-----2-------|-----------2----------|
  |--------0--------4----|-----2--------------2----|-----2-----------2----|--------2-----2-------|
  |-----0----------------|--0----------------------|--0-------------------|-----2-----------2----|
  |--0-------------------|-------------------------|----------------------|--2-------------------|


     E  E  E  E  E  E       E  E  E  E  E  E       E  E  E  E  S S E       E  E  E  E  E  E
  |----------------------|--2-------------------|--0--------0-----------|--2-----------4-------|
  |----------------------|-----------2--2-------|----------------0------|-----------2----------|
  |-----------2----------|--------------2-------|--------2-----2---2----|--------------2-------|
  |--------2-----2-------|--------0--------4----|-----2-----------------|--------0--------4----|
  |-----2-----------2----|-----0----------------|--0--------------------|-----0----------------|
  |--2-------------------|--0-------------------|-----------------------|--0-------------------|


     E  E  E  E  E  E       E  E  E  E  E  E       E  E  E  E  E  E       E  E  E  E  E  E
  |--0--------0----------|--5-----------4--2----|--------5-------------|--------------0-------|
  |--------------2-------|-----------3----------|--5--------5--0-------|--------2-----0-------|
  |--------2--------2----|--------2-----2-------|--------2--------2----|--2--------2-----2----|
  |-----2----------------|-----4-----------4----|-----2----------------|-----0--------2-------|
  |--0-------------------|--2-------------------|--4-------------------|----------------------|
  |----------------------|----------------------|----------------------|--0-------------------|


     E  E  E  E  Q          E  E  E  E  E  E       E  E  E  E  E  E       E  E  E  E  S S S S
  |--------------0-------|--5-----------4--2----|--------5-------------|--------------0---------|
  |--2-------------------|-----------3----------|--5--------5----------|--------------0h2-0-----|
  |-----------2----------|--------2-------------|--------2-----2--2----|--2--------2--2-----2---|
  |--------4-------------|-----0----------------|-----2-----------2----|--------0-----2---------|
  |-----4----------------|--2-------------------|--4-------------------|-----0------------------|
  |--4-------------------|----------------------|----------------------|--0---------------------|

        ^                                      
     E  H           E       H.                     E  E  E  E  E  E       E  E  E  Q.
  |-----0-----------L----|--L-------------------|--------5--4-----0----|--2-------------------|
  |-----2-----------L----|--L-------------------|--------2-----2-------|--------2--2----------|
  |--2--2-----------L----|--L-------------------|-----2----------------|--------2-------------|
  |-----2-----------L----|--L-------------------|----------------------|-----0--4-------------|
  |--0--------------L----|--L-------------------|--0-------------------|----------------------|
  |----------------------|----------------------|----------------------|--0-------------------|


     E  E  E  E  E  E       E  E  E  E  Q          E  E  E  E  T T S E       E  E  E  E  E  E
  |--------5--4-----0----|--2-------------------|-----------0-------------|-----------4----------|
  |--------2-----2-------|--------2--2----------|--2-----------0h2p0------|----------------------|
  |-----2----------------|--------2-------------|--------2----------------|--2-----1-----2-------|
  |----------------------|-----0--4-----2-------|-----2--------------2----|-----2-----------2----|
  |--0-------------------|----------------------|--0----------------------|--0-------------------|
  |----------------------|--0-------------------|-------------------------|----------------------|

                       
     E  E  E  E  E  E       E  E  E  E  E  E       E  E  E  E  T T S E       E  E  E  E  E  E
  |--------2-------------|--------5--2--0-------|--------0----------------|-----------0--2-------|
  |-----------2----------|--------------2-------|--2-----0--2--0h2p0------|----------------------|
  |--------------2-------|-----------------2----|--------2----------------|--2-----1--------2----|
  |--4--------------4----|-----0----------------|-----2--------------2----|-----2----------------|
  |-----5----------------|----------------------|--0----------------------|--0-------------------|
  |--0-------------------|--0-------------------|-------------------------|----------------------|

                                                   ^     ^                ^     ^  
     E  E  E  E  E  E       E  E  E  E  E  E       Q     Q     Q          Q     Q     S S E  
  |--0-----0-------------|--------0--5--0-------|--2-----9-------------|--0-----9--------------|
  |--------0--------0----|--------0--------0----|--2-----7-----2-------|--2-----10----2p0------|
  |--------2-----2-------|----------------------|--2-----9-------------|--2-----9---------2----|
  |-----2-----2----------|-----2----------------|--4-----0-------------|--2--------------------|
  |----------------------|----------------------|----------------------|--0--------------------|
  |--2-------------------|--2-------------------|--0-------------------|-----------------------|

     ^     ^                ^     ^
     Q     Q     Q          Q     H                E  E  E  E  E  E       E  E  E  E  E  E
  |--2-----9-----4-------|--0-----9-------------|--5-----------4--2----|--0-----5-------------|
  |--3-----7-------------|--0-----10------------|--------0--3----------|--------0--2--5-------|
  |--2-----7-------------|--2-----9-------------|----------------------|-----2-----------2----|
  |--0-------------------|--2-------------------|-----4----------------|----------------------|
  |----------------------|--0-------------------|--2-------------------|--4-------------------|
  |----------------------|----------------------|----------------------|----------------------|

                                                        
     E  E  E  E  E  E       E  E  E  E  E  E       E  E  E  E  E  E       E  E  E  E  E  E
  |----------------------|--5--4--0-------------|--5--------2--4--2----|--0-----5-----5-------|
  |-----------2--0-------|--2--------2--0-------|--------3-------------|--------0--5----------|
  |--2-----2-------------|-----------------2----|-----2----------------|-----2-----------2----|
  |-----0-----------2----|----------------------|----------------------|----------------------|
  |----------------------|----------------------|--2-------------------|--4-------------------|
  |--0-----------2-------|--4-------------------|----------------------|----------------------|

                                                     ^
     E  E  E  E  S S S S      E  E  E  E  E  E       H.                     H.
  |--5-----2---------------|--0-----------0--5----|--9-------------------|--L-------------------||
  |--2--------3--0h2p0-----|--0--------2----------|--10------------------|--L-------------------||
  |-----2--------------2---|--2-----2-------------|--9-------------------|--L-------------------||
  |--0---------------------|-----2----------------|----------------------|----------------------||
  |------------------------|--0-------------------|--L-------------------|--L-------------------||
  |--------------2---------|----------------------|----------------------|----------------------||
Login or Register to remove this ad.