Ads

Rain Like Tears (Yosuga no Sora) Guitar Tab

Submitted: Mar 22, 2013 by scarecrowlol (Last updated: May 31, 2021)

5
Average: 5 (3 votes)
Download | Listen
Game: Yosuga no Sora
Composer(s): Bruno Wen-Li, Manabu Miwa
Style: Arrangement, Fingerstyle, Pinch harmonics

Click here for a video example.

AutoScroll: Slow | Medium | Fast
Title: Rain Like Tears
SubTitle: Yosuga No Sora
Artist: Bruno Wen-Li & Manabu Miwa
Tabber: Mitch Jackson
Tempo = 70
T/S = 4/4

Left hand fingering is included in GP file as a guide

---------
LEGEND 
---------
h = Hammer On
p = Pull Off
L = Hold Previous Note
^ = Upstroke
g = Grace Note On Beat
<?> = Pinch Harmonic
ferm = Hold Note Longer


     ♪♫•*¨*•.¸¸ CAPO 3 ¸¸.•*¨*•♫♪ 


     E  E  H.                     E  E  H.                     E  E  H.                     E  E  H.                                                              
E |-----2----------------------|-----0----------------------|-----2----------------------|-----0----------------------|
B |-----0--3-------------------|-----3----------------------|-----0--3-------------------|-----3----------------------|
G |--0-------------------------|--------5-------------------|--0-------------------------|--------5-------------------|
D |--2-------------------------|--3-------------------------|--2-------------------------|--3-------------------------|
A |----------------------------|--5-------------------------|----------------------------|--5-------------------------|
E |----------------------------|----------------------------|----------------------------|----------------------------|

                                                          
     E  E  H           Q          E  E  H.                     E  E  H           Q          E  E  H.                                                           
  |--2-------------------------|--0-------------------------|--2-------------------------|----------------------------|
  |-----0--3-----------0-------|----------------------------|-----0--3-----------0-------|----------------------------|
  |--0-------------------------|-----2--5-------------------|--0-------------------------|--5--2--5-------------------|
  |--2-------------------------|--3-------------------------|--2-------------------------|--3-------------------------|
  |----------------------------|--5-------------------------|----------------------------|--5-------------------------|
  |----------------------------|----------------------------|----------------------------|----------------------------|

     ^                            ^                            ^                            ^                                                              
     E  E  H           Q          E  E  H.                     E  E  H           Q          E  E  H.                       
  |--2-------------------------|--0-------------------------|--2-------------------------|----------------------------|
  |--3--0--3-----------0-------|----------------------------|--3--0--3-----------0-------|----------------------------|
  |--0-----------------0-------|--5--2--5-------------------|--0-----------------0-------|--5--2--5-------------------|
  |--2-------------------------|--3-------------------------|--2-------------------------|--3-------------------------|
  |----------------------------|--5-------------------------|----------------------------|--5-------------------------|
  |----------------------------|----------------------------|----------------------------|----------------------------|

                                                P.H-->         ^                            ^
     E  E  E  H           E       H           E  E  Q          H.                Q          H.                E.  T T                                   
  |--2-------------------------|--0-----------L-<12>--------|--3-----------------5-------|--2-----------------L---------|
  |-----3--0-------------------|--0-----------L-------------|--3-------------------------|--2-----------------L---2-----|
  |-----------2-----------L----|-------------------<2>------|--4-------------------------|--3-----------------L-----1---|
  |--2-------------------------|--2-----------L-------------|----------------------------|------------------------------|
  |----------------------------|--3-----------L-------------|--2-------------------------|--1-----------------L---------|
  |----------------------------|----------------------------|----------------------------|------------------------------|

     ferm                                                                       
     W                            E  E  H.                     E  E  H.                     E  E  H.                    
  |----------------------------|--3--2--5-------------------|--------5-------------------|--3--0--5-------------------|
  |----------------------------|--------3-------------------|--6--5----------------------|--0-----0-------------------|
  |----------------------------|-----4----------------------|--------5-------------------|--2--0----------------------|
  |--4-------------------------|--2-------------------------|-----7----------------------|----------------------------|
  |----------------------------|----------------------------|--5-------------------------|--3-------------------------|
  |----------------------------|----------------------------|----------------------------|----------------------------|

                    
     E  E  Q     H                E  E  E  E  Q     Q          E  E  E  H           E       E  E  E  E  Q     Q                                    
  |--2-------------------------|--------------7-------------|-----------8-----------L----|--0-----5--7--5-----0-------|
  |--5--3--------3-------------|--7--8--7--8--------7-------|--5--6--5-------------------|--0--3--------5-----0-------|
  |--------2-------------------|--------7-------------------|--------5-------------------|----------------------------|
  |--4-------------------------|-----9----------------------|-----7----------------------|----------------------------|
  |----------------------------|--7-------------------------|--5-------------------------|--3-------------------------|
  |----------------------------|----------------------------|----------------------------|----------------------------|

                                   g ^                         
     E  E  E  S S H                T W                                                     
  |--2-----5--0-----------------|--3p2-----------------------||
  |--5--3-------4h3-------------|----3-----------------------||
  |-----------------------------|----4-----------------------||
  |-----------------------------|----5-----------------------||
  |--2--------------------------|----2-----------------------||
  |-----------------------------|----------------------------||                                      
Login or Register to remove this ad.