Ads

Old Memory (Yosuga no Sora) Guitar Tab

Submitted: Mar 09, 2014 by scarecrowlol

5
Average: 5 (10 votes)
Download | Listen
Game: Yosuga no Sora
Composer(s): Bruno Wen-Li, Manabu Miwa
Style: Arrangement, Fingerstyle, Natural harmonics

AutoScroll: Slow | Medium | Fast
Title: Old Memory
SubTitle: Yosuga No Sora
Artist: Manabu Miwa & Bruno Wen-Li
Tabber: Mitch Jackson
Tempo = 84
T/S = 4/4



     E  E  E  E  Q     E  E       E  E  E  E  H                E  E  E  E  Q     E  E       E  E  E  E  H
E |--10-12-14-17<12>-----------|-----12-14-15-14------------|--14-12-14-17<12>-----------|----------------------------|
B |--0-----------------12-14---|--15------------------------|--0-----------------12-14---|--15-14-12-10---------------|
G |----------------------------|--0-------------------------|----------------------------|--0-----------11------------|
D |----------------------------|--------------0-------------|----------------------------|--------9-----12------------|
A |-------------<12>-----------|----------------------------|-------------<12>-----------|----------------------------|
D |----------------------------|----------------------------|----------------------------|----------------------------|



     E  E  E  E  Q     E  E       E  E  E  E  H                E  E  E  E  Q     Q          E  E  H.
  |--10-12-14-17<12>-----------|-----12-14-15-14------------|--14-------14-12----9-------|--10------------------------|
  |--0-----------------12-14---|--15------------------------|-----15-15------------------|-----14-12L-----------------|
  |----------------------------|--0-------------------------|----------------------------|----------------------------|
  |----------------------------|--------------0-------------|----------------------------|----------------------------|
  |-------------<12>-----------|----------------------------|--------------9-------------|--10------------------------|
  |----------------------------|----------------------------|--14------------------------|----------------------------|



     W                            E  E  E  E  E  E  E  E       E  E  E  E  E  E  Q          E  E  E  E  E  E  E  E
  |----------------------------|--------2--5--0-------------|-----0--2--3--2-------------|--2-----2--5--0-------------|
  |--L-------------------------|--3--5-----3--------0--2----|--3-----0-------------------|-----5-----3--------0--2----|
  |----------------------------|--------2-----------2-------|--------------------2-------|--------2-----------2-------|
  |----------------------------|-----4-----------2----------|-----0-----------0----------|-----4-----------2----------|
  |----------------------------|--2-----------0-------------|----------------------------|--2-----------0-------------|
  |----------------------------|----------------------------|--5-----------0-------------|----------------------------|



     E  E  E  E  E  E  Q          E  E  E  E  E  E  E  E       E  E  E  E  E  E  E  E       E  E  E  E  E  E  Q
  |--------------2-------------|--------2--5--0-------------|-----0--2--3--2--------2----|--2--------2--0-------------|
  |--3--2--0-----------3-------|--3--5-----3--------0--2----|--3--------0--------3-------|-----3--3-----------2-------|
  |-----------2----------------|--------2-----------2-------|-----------------2----------|-----0-----------2----------|
  |-----------------4----------|-----4-----------2----------|--------4-----0-------------|--2-----------4-------------|
  |--------0-----5-------------|--2-----------0-------------|-----5----------------------|----------------------------|
  |--5-------------------------|----------------------------|--5-------------------------|----------------------------|



     E  E  H.                     E  E  E  E  Q     Q          E  E  E  E  H                E  E  E  E  Q     Q
  |----------------------------|--7--------5--0-----7-------|-----0--2-(0)(2)------------|--7--------5--0-----9-------|
  |--3--2--0-------------------|-----7--7--0----------------|--3-------------------------|-----7--7--0----------------|
  |----------------------------|----------------------------|--------2-------------------|--------------7-------------|
  |-----0----------------------|-----0----------------------|-----4----------------------|-----0----------------------|
  |----------------------------|----------------------------|--5-------------------------|----------------------------|
  |--5-------------------------|--5-------------------------|----------------------------|--5-------------------------|



     E  E  E  E  H                E  E  E  E  E  E  E  E       E  E  E  E  E  E  E  E       E  E  E  E  E  E  E  E
  |-----5--2----(2)------------|--7--------5-<12>-----------|-----0--2--------------2----|--3--2----(0)---------------|
  |--3-------(5)---------------|-----7--7--0--------3--2----|--3--------2--3-----3-------|--------3--0----------------|
  |--------2-------------------|----------------------------|--------------------2-------|-----0--4-----0-------------|
  |--0--4----------------------|-----0-----------2----------|-----4-----------4----------|-----------------4--0-------|
  |----------------------------|--------------0-------------|--1-----------2-------------|--3--------------------2----|
  |----------------------------|--5-------------------------|----------------------------|----------------------------|


                                                             2/4              4/4
     E  E  E  E  E  Q.            E  E  E  E  E  Q.            H              E  E  E  E  E  E  E  E
  |--------------0--5----------|-----------------5L---------|--L-----------|--------2--5--0-------------|
  |--3--------3----------------|--5--------2--5-------------|--------------|--3--5--3-----------0--2----|
  |--------0-------------------|--------2-------------------|--------------|----------------------------|
  |-----2----------------------|-----2----------------------|--------------|-----4-----------2----------|
  |--0-------------------------|--0-------------------------|--------------|--2-----------0-------------|
  |----------------------------|----------------------------|--------------|----------------------------|



     E  E  E  E  E  E  Q          E  E  E  E  E  E  E  E       E  E  E  E  E  E  Q          E  E  E  E  E  E  E  E
  |-----0--2--3--2-------------|--2-----2--5--0-----7--9----|--10-9--7--5--2-------------|--------2--5--0-------------|
  |--3-----0-----------3-------|-----5--3-------------------|--0-----------------3-------|--3--5--3-----------0--2----|
  |----------------------------|----------------------------|--------6-------------------|----------------------------|
  |-----0-----------4----------|-----4-----------2----------|-----------------4----------|-----4-----------2----------|
  |--------------5-------------|--2-----------0-------------|--------0-----5-------------|--2-----------0-------------|
  |--5-------------------------|----------------------------|--5-------------------------|----------------------------|



     E  E  E  E  E  E  Q          E  E  E  E  E  E  Q          E  E  Q     E  E  Q          E  E  H.
  |-----0--2--3--2-------------|--2--------2--0-------------|--------------10-9--7-------|-----0----------------------|
  |--3-----0-----------3-------|-----3--3-----------2-------|--3--2--0-------------------|--7-------------------------|
  |----------------------------|--------0-----------2-------|----------------------------|--------7-------------------|
  |-----0-----------4----------|-----------------2----------|-----0----------------------|----------------------------|
  |--------------5-------------|-----2----------------------|----------------------------|----------------------------|
  |--5-------------------------|--2-----------4-------------|--5-------------------------|----------------------------|


  PLAY SOFTLY -->
     E  E  E  E  Q     S  S E       E  E  H.                     W
  |--10-12-14-17-12--------------|-----12-14------------------|--L-------------------------||
  |-<12>---------10----12-Ls14---|--15------------------------|--L-------------------------||
  |------------------------------|-<12>-----------------------|--L-------------------------||
  |------------------------------|----------------------------|----------------------------||
  |------------------------------|----------------------------|----------------------------||
  |------------------------------|----------------------------|----------------------------||

Login or Register to remove this ad.

2 comments on Old Memory

This sounds… AMAZING!

5

I can't wait to play this with my acoustic when I get back to school!!!!

That was beautiful!

5

That was beautiful! Favorited!