Ads

Memory (Yosuga no Sora) Guitar Tab

Submitted: Aug 05, 2016 by scarecrowlol (Last updated: Apr 25, 2021)

5
Average: 5 (8 votes)
Download | Listen
Game: Yosuga no Sora
Composer(s): Bruno Wen-Li, Manabu Miwa
Style: Arrangement, Fingerstyle

Click here for a video example.

AutoScroll: Slow | Medium | Fast
Title: Memory
SubTitle: Yosuga No Sora
Artist: Bruno Wen-Li, Manabu Miwa
Tabber: Mitch Jackson
Tempo = 95
T/S = 6/4

Left hand fingering is included in GP file as a guide

--------
LEGEND
--------
h = Hammer On
s = Slide
^ = Upstroke
L = Hold Previous Note
<?> = Natural Harmonic
(?) = Ghost Note
g = Grace Note Before Beat


   ♪♫•*¨*•.¸¸ CAPO 2 ¸¸.•*¨*•♫♪

                       ^                                        ^                                        ^
     E  E  E  E  E  E  H.                     E  E  E  E  E  E  H.                     E  E  E  E  E  E  H.
E |--0-----------------5-------------------|--------------------3-------------------|----------------------------------------|
B |--------3-----1-----5-------------------|--3-----1-----0-----3-------------------|--0-----3-----1-----3-------------------|
G |-----2-----2-----2--7-------------------|-----0-----0-----0----------------------|-----2-----2-----2--2-------------------|
D |----------------------------------------|----------------------------------------|--------------------2-------------------|
A |----------------------------------------|----------------------------------------|----------------------------------------|
D |--3-------------------------------------|--2-------------------------------------|--3-------------------------------------|

                       ^                                                                                 ^
     E  E  E  E  E  E  H.                     Q     Q     Q     Q     Q     Q          Q     Q     Q     Q     H
  |--------------------0-------------------|----------------------------------------|--------------------------0-------------|
  |--3-----1-----0-----3-------------------|--------------------------------0-------|--------0-----1-----3-------------------|
  |-----0-----0-----0--2-------------------|--------0-----2-----0-----2-------------|--2-----------------2-------------------|
  |----------------------------------------|--3-----------------0-------------------|--2-----------------2-------------------|
  |----------------------------------------|--3-------------------------------------|----------------------------------------|
  |--2-------------------------------------|--0-----------------2-------------------|--3-----------------2-------------------|

  3/4                     6/4
     H           E  E       S E.  Q     S E.  Q     E  E  E  E       S E.  E  E  E  E  E  E  H   
  |--L-------------------|--------0-------------------------------|--------1-----------3s-5--3-------------|
  |--L-------------------|--------1-----3s5---0-----0--1--0-------|--------1--0--1--3--------5-------------|
  |--L-----------2--0----|--0h2---------------------0--------0----|--0h2---------------------4-------------|
  |--L-------------------|--------------------------2-------------|----------------------------------------|
  |----------------------|----------------------------------------|--------------------3-------------------|
  |--L-------------------|--3-----------------2-------------------|--0-------------------------------------|

     
     S E.  Q     S E.  Q     Q     Q          S E.  H           Q     S E.  Q          Q     Q     E S.  Q     E  E  E  E 
  |--------0-----------3-------------------|----------------------------0-----------|--------0-------------------------------|
  |--------1-----3s5---------0-------------|--------1-----------------3-----0-------|--------1-----3s5---0-----0--1--0-------|
  |--0h2---------------------0-----0-------|--0h2---2-----------------1-------------|--2-----------------------0--------0----|
  |--------------------------2-------------|--------4-------------------------------|--------------------------2-------------|
  |----------------------------------------|----------------------------------------|----------------------------------------|
  |--3-----------------2-------------------|--0-----------------2-------------------|--3-----------------2-------------------|

                                                                                                               ^
     S E.  E  E  E  E  E  E  H                S E.  Q     S E.  Q     Q     Q          S E.  E  E  S E.  Q     H
  |--------1-----------3s-5--3-------------|--------0-----------3-------------------|----------------------------------------|
  |--------1--0--1--3--------5-------------|--------1-----3s5---------0-------------|--------3-----------------2-------------|
  |--0h2---------------------4-------------|--0h2---------------------0-----0-------|--0h2---2--0--2s4---2-----2-------------|
  |----------------------------------------|--------------------------2-------------|--------2-----------------2-------------|
  |--------------------3-------------------|----------------------------------------|--0-----------------0-------------------|
  |--0-------------------------------------|--3-----------------2-------------------|----------------------------------------|

   3/4                    6/4                                                                          
     Q     Q     Q          E  E  Q     E  E  E  E  Q     Q          E  E  Q     Q     E  E  Q     E  E
  |----------------------|--------0-------------------------------|--0-----3-------------------------------|
  |--L-------------------|--------------------------3-----3-------|--------0-----0-----1-----1-----1--3----|
  |--L-----------0-------|--2-----2-----0--2--0-----0-------------|--------0-----------------0-------------|
  |--L-----2-------------|-----3-----------------0----------------|-----0----------------------------------|
  |----------------------|----------------------------------------|--------------------0--3----------------|
  |----------------------|--3-----------------2-------------------|--5-------------------------------------|

                                         
     E  E  E  E  E  E  E  E  Q     E  E       E  E  Q     Q     E  E  E  E  Q          E  E  Q     E  E  E  E  E  E  E  E
  |--0--------0-----0----------------------|--0-----1-----3-----4-----5-----7-------|--5-----0-----3s-5--3-----------0-------|
  |--------1-----1-----3-----0-----1--3----|----------------------------------------|--------------------------0-----3--0----|
  |--------------------------0-------------|--------2-------------------------------|--------2-----------------0--0----------|
  |-----0--3-----3--------0----------------|-----3-----------------------2----------|-----3-----------------0----------------|
  |----------------------------------------|-----------------------2----------------|----------------------------------------|
  |--0-----------------2-------------------|--3-----------------2-------------------|--3-----------------2-------------------|

                                         
     E  E  Q     Q     E  E  Q     Q          E  E  E  E  E  E  E  E  Q     E  E       E  E  E  E  E  E  E  E  E  E  Q
  |--0-----3-----7-----8-----10---<12>-----|--------------------------0-------------|--------0-----------------0-------------|
  |--------0-------------------------------|--------------3-----0-----0--------0----|--1--------1--0-----------------0-------|
  |--------0-----0--------5----------------|--------5--------5--------------0-------|--------2--------2--1-----2-------------|
  |-----0----------------------------------|--------3--------------0----------------|-----------------------0-----0----------|
  |--------------------0-------------------|-----5-----5----------------------------|-----3----------------------------------|
  |--5-------------------------------------|--0-----------------2-------------------|--3-----------------2-------------------|

                                                                                     3/4
     E  E  Q     E  E  E  E  E  E  Q          E  E  E  E  E  E  H.                     Q     Q     Q
  |--0-----0-----------------------0-------|----------------------------------------|----------------------|
  |--------------3--1--0-----0-------------|--------1-----3-----1-------------------|--L-------------------|
  |--------2-----------------0--0----------|--2--0-----0----------------------------|--L-----2-----0-------|
  |-----------------------0--------2-------|----------------------------------------|----------------------|
  |-----3----------------------------------|--0--------------3----------------------|--L-------------------|
  |--3-----------------5-------------------|----------------------------------------|----------------------|

   6/4     ^                                                                                 ^ 
     E  E  Q     Q     E  E  E  E  E  E       E  E  E  E  E  E  E  E  Q     Q          E  E  Q     Q     E  E  Q     Q
  |--------0-----0-------------------------|--------1-----------3--5--3-------------|--------0-----0-----3-------------------|
  |--------1-----------0-----0--1--0-------|--------1--0--1--3--------5-------------|--------1-----------------0-------------|
  |--2-----0-----------------0--------0----|--2-----0-----------------4-----4-------|--2-----0-----------------0-----0-------|
  |-----------------------0----------------|-----0-----------------5----------------|-----------------------0----------------|
  |-----3----------------------------------|--------------------3-------------------|-----3----------------------------------|
  |--3-----------------2-------------------|--0-------------------------------------|--3-----------------2-------------------|
                                       
           ^                                        ^ 
     Q     H           E  E  E  E  Q          E  E  Q     Q     E  E  E  E  E  E       E  E  E  E  E  E  E  E  Q     Q
  |--------------------------0-------------|--------0-----0-------------------------|--------1-----------3--5--3-------------|
  |--------1-----------------0-----0-------|--------1-----------0-----0--1--0-------|--------1--0--1--3--------5-------------|
  |--2-----2-----------------1-------------|--2-----0-----------------0--------0----|--2-----0-----------------4----(4)------|
  |--------4--------------0-----0----------|-----------------------0----------------|-----0-----------------5----------------|
  |----------------------------------------|-----3----------------------------------|--------------------3-------------------|
  |--0-----------------2-------------------|--3-----------------2-------------------|--0-------------------------------------|
                                       
           ^                                                                         3/4
     E  E  Q     Q     E  E  Q     Q          E  E  E  E  Q     E  E  H                Q     Q     Q
  |--------0-----0-----3-------------------|----------------------------------------|--------0-----3-------|
  |--------1-----------------0-------------|--------3-----0-----------2-------------|--L-------------------|
  |--2-----0-----------------0-----0-------|--2-----2--0--------2-----2-------------|--L-------------------|
  |-----------------------0----------------|-----2-----------------2----------------|----------------------|
  |-----3----------------------------------|--0-----------------0-------------------|----------------------|
  |--3-----------------2-------------------|----------------------------------------|----------------------|

    ^
6/4 g                                                                                                           ^
    S E  E  Q     E  E  E  E  Q     Q          E  E  E  E  Q     E  E  E  E  E  E       E  E  E  E  E  E  E  E  Q     E  E
  |---5-----------3--5--3-------------------|--0-----3-------------------------------|--0--------0-----0-------(0)------------|
  |-5-------5-----------------0-----3-------|--------0-----0-----1-----------1--3----|--------1-----3-----3-----4--------3----|
  |-5-------5-----------------0-------------|--------0-----------------4-------------|--------0-----------------3-----5-------|
  |---------3--------------0----------------|-----0-----0-----------2-----2----------|--------3--------------0----------------|
  |------3----------------------------------|--------------------0-------------------|-----0----------------------------------|
  |---3-----------------2-------------------|--5-------------------------------------|--0-----------------2-------------------|

                                                    ^           ^          
     E  E  E  E  E     E  E  E  E  Q          E  E  Q     E  E  E  E  E  E  Q          E  E  Q     Q     E  E  E  E  E  E
  |--0-----1-----3-----4-----5-----7-------|--5-----------3--5--3-------------------|--0-----3-----7-----8-----10---<12>-----|
  |----------------------------------------|--------5-----------------0-----3-------|--------0-----------------0-------------|
  |--------0-------------------------------|--------5-----------------0--0----------|--------0--------------5-----7-----0----|
  |-----------------------------2----------|--------3--------------0----------------|-----0----------------------------------|
  |-----3-----3-----------2----------------|-----3--------------2-------------------|--------------------0-------------------|
  |--3-----------------2-------------------|--3-----------------2-------------------|--5-------------------------------------|

                                                    ^           ^
     E  E  Q     E  E  E  E  Q     E  E       E  E  E  E  E  E  E  E  E  E  Q          E  E  Q     E  E  E  E  Q     Q
  |----------------------------------------|--------0-------------------------------|--0-----------------------0-------------|
  |--------1-----3--1--0-----0--------0----|--1-----1--1--0-----------------0-------|--------1-----3--1--0-----0-------------|
  |--------0-----------------0-----0-------|--------0--------2--1-----2-------------|--------2-----------------0-------------|
  |--------3--------------0----------------|--------------------0--------0----------|-----------------------0--------2-------|
  |-----0----------------------------------|-----3--------------2--2----------------|-----3----------------------------------|
  |--0-----------------2-------------------|--3-----------------2-------------------|--3-----------------5-------------------|

                                              Play Softly -->
     E  E  Q     E  E  E  E  H                H           E  E  Q     Q     Q          H.                H.
  |----------------------------------------|--12----------10-8--7-------------------|--5-------------------------------------|
  |--------1-----3-----------1-------------|--------------------8-----8-------------|--3-----------------2-------------------|
  |--2-----4-----------------4-------------|--10----------------------------9-------|--2-------------------------------------|
  |-----2-----------2-----2----------------|----------------------------------------|----------------------------------------|
  |--0-----------------0-------------------|----------------------------------------|----------------------------------------|
  |----------------------------------------|----------------------------------------|----------------------------------------|


     W.
  |--L-------------------------------------||
  |--L-------------------------------------||
  |--L-------------------------------------||
  |----------------------------------------||
  |----------------------------------------||
  |----------------------------------------||
Login or Register to remove this ad.

2 comments on Memory

Hells yeah!

Hells yeah!

Thank you

5

Thanks for making tabs out of ヨスガノソラ's soundtracks! You're amazing!!!