Ads

Main Theme ~Towards The Distant Sky~ (Yosuga no Sora) Guitar Tab

Submitted: Jul 29, 2017 by scarecrowlol (Last updated: Mar 10, 2021)

5
Average: 5 (8 votes)
Download | Listen
Game: Yosuga no Sora
Composer(s): Bruno Wen-Li, Manabu Miwa
Style: Arrangement, Fingerstyle, Pinch harmonics

Click here for a video example.

AutoScroll: Slow | Medium | Fast
Title: Yosuga No Sora Main Theme ~Towards the Distant Sky~
SubTitle: Yosuga No Sora
Artist: Bruno Wen-Li & Manabu Miwa
Tabber: Mitch Jackson 
Tempo = 110
T/S = 4/4 


Thanks to Mechakrauser for the suggestions in bars 76 to 83 :)  
Left hand fingering is included in GP file as a guide

--------
LEGEND
--------
h = Hammer On
s = Slide
^ = Upstroke
<?> = Pinch Harmonic
(?) = Ghost Note
x = Dead Note
L = Hold Previous Note
|-3-| = Triplet
Rall = Slow down play speed gradually
ferm = Hold Note Longer


   ♪♫•*¨*•.¸¸ CAPO 2 ¸¸.•*¨*•♫♪


     ^                                                         ^                          
     Q     H.                     W                            Q     H.                     W
E |--------5-------------------|--L-------------------------|--3-------------------------|--L-------------------------|
B |--5-------------------------|--L-------------------------|--------3-------------------|--L-------------------------|
G |--5-------------------------|--L-------------------------|--2-------------------------|--L-------------------------|
D |----------------------------|----------------------------|----------------------------|----------------------------|
A |----------------------------|----------------------------|----------------------------|----------------------------|
D |--3-------------------------|--L-------------------------|--2-------------------------|--L-------------------------|

     ^                P.H        P.H                           ^                          3/4
     Q     H           Q          W                            E  E  E  E  E  E  Q          Q     Q     Q      
  |--------5-------------------|-<3>------------------------|----------------------------|----------------------|
  |--5-------------------------|----------------------------|--0--1--0-------------------|----------------------|
  |--5----------------<5>------|----------------------------|-----------0--------0-------|--L-----2-----0-------|
  |----------------------------|----------------------------|--2-----------0h-2----------|----------------------|
  |----------------------------|----------------------------|--0-------------------------|----------------------|
  |--3-------------------------|----------------------------|----------------------------|----------------------|

 
     H           Q          Q.       E  E  E       Q.       E  E  E       E  E  H  
  |--------------0-------|----------------------|----------------------|--3--5--3-------------|
  |----------------------|--0--------1--0-------|-----------0--1--3----|--0-------------------|
  |--2-------------------|--0--------------0----|--2-------------------|--0-------------------|
  |--3-------------------|--2-------------------|--0-------------------|----------------------|
  |----------------------|----------------------|----------------------|--3-------------------|
  |----------------------|----------------------|----------------------|----------------------|


     H           Q          Q     Q     Q          Q     Q     Q          Q     Q     Q
  |--------------0-------|--3-------------------|-------------(2)------|--------0-------------|
  |----------------------|--3-----0-------------|--------------3-------|--------------0-------|
  |--2-------------------|--------------0-------|--2-----2-------------|--1-------------------|
  |--3-------------------|--2-------------------|--0-------------------|--2-------------------|
  |----------------------|----------------------|----------------------|----------------------|
  |----------------------|----------------------|----------------------|----------------------|

                                     
     E  E  E  E  Q          E  E  E  E  E  E       E  E  E  E  E  E       E  E  E  E  Q
  |--------------0-------|----------------------|----------------------|--3--5--3-------------|
  |-----------1----------|--0--------1--0-------|-----------0--1--3----|--------------0-------|
  |--2-------------------|-----------0-----0----|--2--------2----------|-----------0----------|
  |--2-----3-------------|--------2-------------|--3-----0-------------|--------2-------------|
  |-----3----------------|-----2----------------|-----0----------------|--3-------------------|
  |--3-------------------|--2-------------------|--0-------------------|----------------------|

                                                                             
     E  E  E  E  Q          E  E  Q     Q          E  E  E  E  Q          E  E  E  Q.
  |--------------0-------|--3-------------------|----------------------|----------------------|
  |-----------1----------|--3-----0-------------|-(3)----------0-------|-(2)-------2----------|
  |--2-------------------|--------------0-------|--2-----2--0----------|--2-----2-------------|
  |--2-----3-------------|--------2-------------|-----2----------------|-----2----------------|
  |-----3----------------|-----2----------------|--0-------------------|--0-------------------|
  |--3-------------------|--2-------------------|----------------------|----------------------|


     H.                     Q     Q     Q          E  E  Q     E  E       E  E  Q     Q
  |----------------------|--------0-----3-------|--5-----------3--5----|--3-------------------|
  |--L-------------------|--L-------------------|--------5-------------|--------0-----3-------|
  |--L-------------------|--L-------------------|--------5-------------|--------0-------------|
  |--L-------------------|--L-------------------|--------3-------------|-----0----------------|
  |--L-------------------|--L-------------------|-----3----------------|----------------------|
  |----------------------|----------------------|--3-------------------|--2-------------------|


     E  E  Q     Q          E  E  Q     E  E       E  E  E  E  E  E       E  E  Q     E  E
  |--0-----3-------------|----------------------|--0--------0-----0----|----------------------|
  |--------0-----0-------|--1-----3-----1--3----|--------1-----3-------|--3--------------3----|
  |--------2-------------|--4--2----------------|--------2-------------|--------4-----5-------|
  |-----0----------------|--2-------------------|--------3-------------|--------2-------------|
  |----------------------|--0-------------------|-----0----------------|-----2----------------|
  |--5-------------------|----------------------|--0-------------------|--2-------------------|

                             
     E  E  Q     Q          Q     Q     Q          E  E  Q     E  E       E  E  Q     Q
  |--------------3-------|--4-----5-----7-------|--5-----------3--5----|--3-------------------|
  |--5-----6-------------|----------------------|--------5-------------|--------0-----3-------|
  |----------------------|----------------------|--------5-------------|--------0-------------|
  |--------3-------------|--------2-------------|--------3-------------|--------0-------------|
  |-----3----------------|--------------2-------|-----3----------------|-----2----------------|
  |--3-------------------|--2-------------------|--3-------------------|--2-------------------|

                    
     E  E  Q     Q          E  E  Q     Q          E  E  Q     E  E       E  E  Q     E  E
  |--0-----3-------------|--------------0-------|----------------------|----------------------|
  |--------0-----0-------|--1-----3-------------|--------1-----3--1----|--0--------------0----|
  |--------0-------------|--4--2----------------|--------2-------------|--------0-----0-------|
  |-----0----------------|--2-------------------|--------3-------------|--------0-------------|
  |----------------------|--0-------------------|-----0----------------|-----2----------------|
  |--5-------------------|----------------------|--0-------------------|--2-------------------|

                                                                     
     E  E  E  E  E  E       E  E  Q     Q          E  E  E  E  E  E       E  E  Q     Q
  |----------------------|----------------------|--0-------------------|----------------------|
  |--1--------1--0-------|--------------0-------|--------1-----3--1----|--0-------------------|
  |-----------------2----|--1-----2-------------|----------------------|--------0-------------|
  |--------2-------------|--------0-------------|--------2-------------|--------0-----2-------|
  |-----3----------------|-----2----------------|-----3-----0----------|-----2----------------|
  |--3-------------------|--2-------------------|--3-------------------|--2-------------------|

                                                   ^                      ^
     E  E  E  E  E  E       H.                     E  E  H                E  E  H
  |-----------3--0-------|----------------------|--5-------------------|--7-------------------|
  |--1--------1-----1----|----------------------|--6-------------------|--8-------------------|
  |--4-----2-------------|--2-------------------|--------5-------------|--------7-------------|
  |-----2----------------|----------------------|-----7----------------|-----9----------------|
  |--0-------------------|----------------------|--8-------------------|--7-------------------|
  |----------------------|----------------------|----------------------|----------------------|

     ^      
     E  E  H                H.                     H              Q       E  E  E  E  E  E
  |--8-------------------|--L-------------------|--L-------------------|--0-------------------|
  |--10------------------|--L-------------------|--L-------------------|--------1-----1-------|
  |--------9-------------|--L-------------------|--L-------------------|-----2-----2-----2----|
  |-----10---------------|--L-------------------|--L-------------------|--3-------------------|
  |--0-------------------|--L-------------------|--L-------------------|----------------------|
  |----------------------|----------------------|----------------------|----------------------|

           
     E  E  E  E  E  E       E  E  E  E  E  E       E  E  E  E  E  E       E  E  E  E  E  E 
  |----------------------|--0-------------------|----------------------|--0-------------------|
  |--1-----3-----1-------|--------1-----1-------|--1-----3-----1-------|--------1-----1-------|
  |-----2-----2-----2----|-----2-----2-----2----|-----2-----2-----2----|-----2-----2-----2----|
  |----------------------|--2-------------------|----------------------|--3-------------------|
  |----------------------|----------------------|----------------------|----------------------|
  |----------------------|----------------------|----------------------|----------------------|

                                                                          ^
     E  E  E  E  E  E       E  E  E  E  E  E       E  E  E  E  E  E       E  E  E  E  E  E
  |----------------------|--0-------------------|--------3-------------|--0-------------------|
  |--1-----3-----1-------|--------1-----1-------|--3-----------3-------|--1-----1-----1-------|
  |-----2-----2-----2----|-----2-----2-----2----|-----2-----2-----2----|-----2-----2-----2----|
  |----------------------|--2-------------------|----------------------|----------------------|
  |----------------------|----------------------|----------------------|----------------------|
  |----------------------|----------------------|----------------------|--3-------------------|

                            ^                                             ^
     E  E  E  E  E  E       E  E  E  E  E  E       E  E  E  E  E  E       E  E  E  E  E  E
  |----------------------|--0-------------------|----------------------|--0-------------------|
  |--1-----3-----1-------|--1-----1-----1-------|--1-----3-----1-------|--1-----1-----1-------|
  |-----2-----2-----2----|--0--2-----2-----2----|-----2-----2-----2----|-----2-----2-----2----|
  |----------------------|----------------------|----------------------|----------------------|
  |----------------------|----------------------|----------------------|----------------------|
  |----------------------|--2-------------------|----------------------|--3-------------------|

                            ^
     E  E  E  E  E  E       E  E  E  E  E  E       E  E  E  E  E  E       E  E  S S E  E  E  
  |----------------------|--3-------------------|--------3-------------|--5------------0-------|
  |--1-----3-----1-------|--1-----1-----1-------|--3-----------3-------|-----------------------|
  |-----2-----2-----2----|-----2-----2-----2----|-----2-----2-----2----|-----2------2-----2----|
  |----------------------|----------------------|----------------------|--------3(x)-----------|
  |----------------------|----------------------|----------------------|-----------------------|
  |----------------------|--2-------------------|----------------------|-----------------------|

                                                               
     E  E  S S E  E  E       E  E  S S E  E  E       E  E  S S E  E  E       E  E  S S E  E  E
  |--7---------8--7-------|--5--------------------|--3s-5--3--------------|--5------------0-------|
  |------------------8----|------------0--1--3----|---------------0-------|-----------------------|
  |-----0-----------------|-----2-----------------|------------0-----0----|-----2------2-----2----|
  |-----------------------|--------3(x)-----------|--------2(x)-----------|--------3(x)-----------|
  |--------7(x)-----------|-----------------------|-----------------------|-----------------------|
  |-----------------------|-----------------------|-----------------------|-----------------------|

                                                                             ^
     E  E  S S E  E  E       E  E  S S E  E  E       S S E  E  E  E  E       E  E  E  E  E  E
  |--------7--------------|--5--------------------|---------0-------------|--5-------------------|
  |--8------------8-------|-----------------------|---------------0-------|--5-----------5-------|
  |-----0------0-----0----|-----2------2s-5-------|-----------------------|--------5-------------|
  |-----------------------|--------3(x)------7----|------7-----7-----7----|-----7-----7-----7----|
  |--------7(x)-----------|-----------------------|--8(x)-----------------|--8-------------------|
  |-----------------------|-----------------------|-----------------------|----------------------|

     ^                      ^                      ^                      ^                
     E  E  E  E  E  E       E  E  E  E  E  E       E  E  E  E  E  E       E  E  E  E  E  E     
  |--7--------8--7-------|--5-------------------|--3--5--3-------------|--5-------------------|
  |--0--------------8----|--5--------0----------|--0-----------0-------|--5-----------5-------|
  |-----0----------------|--------5-----5--7----|--0--------0-----0----|--------5-------------|
  |--------7-------------|-----7----------------|----------------------|-----7-----7-----7----|
  |--7-------------------|--8-------------------|--7-------------------|--8-------------------|
  |----------------------|----------------------|----------------------|----------------------|

                            ^                                             ^
     E  E  E  E  E  E       E  E  E  E  E  E       E  E  E  E  E  E       Q     Q     Q
  |--------7-------------|--5-------------------|--5-------------------|--3-----------3-------|
  |--8-----0-----8-------|--5-----------0-------|--5-------------------|--5-----5-----3-------|
  |-----0-----0-----0----|--------5--0-----0----|--------7-----5-------|--------5-------------|
  |----------------------|-----7----------------|-----7-----7-----7----|----------------------|
  |--7-------------------|--8-------------------|--8-------------------|----------------------|
  |----------------------|----------------------|----------------------|--3-------------------|

     |-3-| |-3-| |-3-|      |-3-|                  ^                      ^
     E E E E E E E E E      E E E Q     Q          E  E  E  E  E  E       E  E  E  E  Q
  |----------------------|--0-----0-----3-------|--5-----------3--5----|--3-------------------|
  |--1---------------1---|----1-----------------|--5-------------------|--0-----------3-------|
  |--0---------0---0-----|------0---------------|-----------5----------|-----------0----------|
  |------2---2---2-------|----------------------|--------3-------------|--------0-------------|
  |----0---0-------------|----------------------|-----3----------------|-----2----------------|
  |--3-------------------|----------------------|--3-------------------|--2-------------------|

                            ^                                             ^
     E  E  E  E  Q          E  E  E  E  E  E       E  E  E  E  E  E       E  E  E  E  E  E
  |--0-----3-------------|----------------------|--0--------0-----0----|----------------------|
  |--0-----------0-------|--1--------0--1--3----|--1-----------3-------|--3--------------3----|
  |--------0--2----------|--2-----2-------------|-----------2----------|--4--------4--5-------|
  |-----0----------------|-----2----------------|--------3-------------|--------2-------------|
  |----------------------|--0-------------------|-----0----------------|-----2----------------|
  |--5-------------------|----------------------|--0-------------------|--2-------------------|

                                                                          ^
     E  E  E  E  Q          E  E  E  E  E  E       E  E  E  E  E  E       E  E  E  E  Q
  |--0-----1-----3-------|--4-----5-----7-------|--5--------5--3--5----|--3-------------------|
  |----------------------|----------------------|----------------------|--0-----------3-------|
  |-----------2----------|----------------------|--------2-------------|-----------0----------|
  |-----3----------------|-----------2----------|-----2----------------|--------0-------------|
  |----------------------|-----2-----------2----|----------------------|-----2----------------|
  |--3-------------------|--2-------------------|--3-------------------|--2-------------------|

     
     E  E  E  E  Q          E  E  E  E  E  E       E  E  E  E  E  E       E  E  E  E  E  E                                                       
  |--0-----3-------------|--------------0-------|----------------------|----------------------|
  |--0-----------0-------|--1-----3-----1-------|--------------3--1----|--0--------------0----|
  |--------0--2----------|-----------4----------|-----------2----------|--------------0-------|
  |-----0----------------|-----2-----------2----|--------3-------------|--------0--2----------|
  |----------------------|--0-------------------|-----0----------------|-----2----------------|
  |--5-------------------|----------------------|--0-------------------|--2-------------------|

                                                                     
     E  E  E  E  E  E       E  E  E  E  E  E       E  E  E  E  E  E       E  E  Q     Q
  |----------------------|----------------------|--0-------------------|----------------------|
  |--1--------1--0-------|--------------0-------|--------------3--1----|--0-------------------|
  |-----------------2----|--1-----2-------------|--------2-------------|--------0-------------|
  |--------2-------------|-----------0-----0----|-----3----------------|--------------2-------|
  |-----3----------------|-----2----------------|-----------0----------|-----2----------------|
  |--3-------------------|--2-------------------|--3-------------------|--2-------------------|

                                                   ^                      ^ 
     E  E  E  E  E  E       H.                     H.                     H.
  |-----------3--0-------|----------------------|--5-------------------|--7-------------------|
  |-----------1-----1----|----------------------|--5-------------------|--8-------------------|
  |--2-----2-------------|--2-------------------|--5-------------------|--7-------------------|
  |-----2----------------|----------------------|--7-------------------|--9-------------------|
  |--0-------------------|----------------------|--8-------------------|--7-------------------|
  |----------------------|----------------------|----------------------|----------------------|

     ^                                             ^
     Q     Q     Q          Q     Q     Q          H.                     H.
  |--8-----8-----7-------|--3-----0-------------|----------------------|----------------------|
  |--10------------------|--0-----------3-------|--1-------------------|--L-------------------|
  |--9-----9-----7-------|--------0-------------|--0-------------------|--L-------------------|
  |--10------------------|----------------------|--2-------------------|--L-------------------|
  |--0-------------------|----------------------|--0-------------------|--L-------------------|
  |----------------------|----------------------|----------------------|----------------------|

         
     Q.       E  E  E       Q     Q     Q          Q.       E  E  E       E  E  E  E  Q
  |--0--------0-----0----|--3-------------------|--0--------0-----5----|--7--8--7-------------|
  |--------------3-------|--0-----0-------------|--------------3-------|-----------8----------|
  |--5-------------------|--------------0-------|--5-------------------|--7-----------7-------|
  |----------------------|--2-------------------|----------------------|----------------------|
  |----------------------|----------------------|----------------------|--7-------------------|
  |----------------------|----------------------|----------------------|----------------------|

   Rall ------------------------------> ferm
     ^                                             ^
     H           E  E       Q     Q     Q          H.                     H.
  |--0-------------------|----------------------|--5-------------------|--L-------------------||
  |--------------3--1----|--0-------------------|--2-------------------|--L-------------------||
  |--2-------------------|--------0-------------|--2-------------------|--L-------------------||
  |----------------------|--------------2-------|----------------------|----------------------||
  |--3-------------------|--2-------------------|--0-------------------|--L-------------------||
  |----------------------|----------------------|----------------------|----------------------||
Login or Register to remove this ad.

1 comment on Main Theme ~Towards The Distant Sky~

Nice tab.

5

I'm always happy to see more songs from this show pop up here ^^ Kinda makes me feel like riverdancing.