Ads

June Song (Yosuga no Sora) Guitar Tab

Submitted: Aug 09, 2021 by scarecrowlol (Last updated: Aug 10, 2021)

5
Average: 5 (2 votes)
Download | Listen
Game: Yosuga no Sora
Composer(s): Bruno Wen-Li, Manabu Miwa
Style: Arrangement, Fingerstyle

Click here for a video example.

AutoScroll: Slow | Medium | Fast
Title: June Song
SubTitle: Yosuga No Sora
Artist: Bruno Wen-Li & Manabu Miwa
Tabber: Mitch Jackson
Tempo = 65
T/S = 4/4

Left hand fingering is included in GP file as a guide

---------
LEGEND 
---------
h = Hammer On
L = Hold Previous Note
^ = Upstroke


   ♪♫•*¨*•.¸¸ CAPO 1 ¸¸.•*¨*•♫♪


     E.  S H.                     E.  S H.                     E.  S H           Q          E.  S H.                    
E |--0-------------------------|--0-------------------------|--0-----------------5-------|--4---2-0-------------------|
B |--------0-------------------|--------0-------------------|--------0-----------2-------|--0-------------------------|
G |--2---2---------------------|--2---2---------------------|--2---2---------------------|------2-1-------------------|
D |--0-------------------------|----------------------------|--0-------------------------|----------------------------|
A |----------------------------|--4-------------------------|----------------------------|--4-------------------------|
D |----------------------------|----------------------------|----------------------------|----------------------------|

                                                     
     E  S S H           Q          E  S S E  Q.       Q          E  E  E  E  E  E  E  E       E  E  E  S S E  E Q
  |--0------------------2-------|--0---------0--------2-------|--0--------0--2-------------|--------0--------------------|
  |---------0-------------------|---------0-------------------|--------3-----------0-------|--2--0-----3-2-0-------------|
  |--2--2-2-------------2-------|--2--2-2-------------2-------|--2--2-----------2-----2----|-----------------------------|
  |--0--------------------------|-----------------------------|--0-------------------------|--2--------4-2-0-------------|
  |-----------------------------|--4--------------------------|----------------------------|------------------2----------|
  |-----------------------------|-----------------------------|----------------------------|---------------------2-------|

                                                                   |-- First Ending -->
      E  E  Q     S S S S S S S S      E  E  Q     S S S S S S S      Q     Q.       S S Q          Q     Q.       S S Q
  ||--------5-----L-4-5-7-5-4-2-0---|--------5-----L-5-7-9-7-5-4---|--4-----2--------------------|--4-----5------------2-------||
  ||--2-------------0-------0-------|--2-----------------------0---|--0------------------2-------|--0-----2----------2---------||
  ||o-------2-----L---6-7-6---2-1---|--------2-----L-6-7-9-7-6-----|--------2--------------------|-----------------2----------o||
  ||o----2--------------------------|-----2------------------------|-----------------0h2-4-------|--------0-------------------o||
  ||--0-----------------------------|--0---------------------------|-----------------------------|-----------------------------||
  ||--------------------------------|------------------------------|--0--------------------------|--0--------------------------||

  |-- Second Ending -->                                                   
     E  E  H.                     E  E  H.                     E  E  E  S S E  E  Q          E  E  E  S S E  E  Q
  |--4-----5-------------------|--4-----2-------------------|--0--------0h2-5-----2-------|--0-----0--0h2-5-----2-------|
  |--0-------------------------|--0-------------------------|--------3---------3----------|-----------------------------|
  |--------6-------------------|--------2-------------------|--2--2---------------2-------|--2--2------------2----------|
  |-----0----------------------|--------0-------------------|--0--------------------------|-----------------------------|
  |----------------------------|-----0----------------------|-----------------------------|--4--------------------------|
  |--0-------------------------|--0-------------------------|-----------------------------|-----------------------------|

                                                     
     E  E  E  S S E  E  E  E       E  S S E  E  H                E  E  E  S S E  E  Q          E  E  E  S S E  E  Q
  |-----------0h2-5-------------|------------0--5-------------|--0--------0h2-5-----2-------|--0--------0h2-5-----2-------|
  |--5---------------3--2-------|--0------2-------------------|--------3---------3----------|--------2--------------------|
  |--2-----2---------------2----|-------2-1-------------------|-----2---------------2-------|--2--2------------2----------|
  |-----4-----------------------|-----2-----------------------|--0--------------------------|-----------------------------|
  |--2--------------------------|--0--------------------------|-----------------------------|--4--------------------------|
  |-----------------------------|-----------------------------|-----------------------------|-----------------------------|

                                                     
     E  S S E  E  E  S E.  E       E  E  E  S S E  E  E  E        E  E  E  E  S S S S S S S S      E  E  E  E  S S S S S S S S
  |--4----5----7--9----2---5----|--5-----0--4-2-0-------------||--------5-------4-5-7-5-4-2-0---|--------5-------4-5-7-9-7-5-4---|
  |---------0--------0-----2----|--2--0------------0----------||--2-----------2---------0-------|--2-----------2-------------0---|
  |------------7--9----2--------|---------------------1-------||o-------2-------4-6-7-6---2-1---|--------2-------4-6-7-9-7-6-----|
  |-----4-----------------------|--2---------------------2----||o----2-----2--------------------|-----2-----2--------------------|
  |--2--------------------------|-----------------------------||--0-----------------------------|--0-----------------------------|
  |-----------------------------|-----------------------------||--------------------------------|--------------------------------|

  |-- First Ending -->                                      |-- Second Ending -->                 
     E  E  E  E  E  E  E  E       E  E  E  E  E  E  E  E       E  E  E  E  E  E  E  E       E  E  E  E  E  E  E  E 
  |--4-----2-------------------|--4-----5------------------||--4-----5-------------------|--4-----2-------------------|
  |--0-------------------------|--0-----2------------------||--0-----2-------------------|--0-------------------------|
  |--------2-----2-------------|--------------2-----------o||--------------2-------------|--------2-----2-------------|
  |--------4-----------4-------|--------4-----------4-----o||--------4-----------4-------|--------4-----------4-------|
  |-----0-----5-----5-----5----|-----0-----5-----5-----5---||-----0-----5-----5-----5----|-----0-----5-----5-----5----|
  |--0-------------------------|--0------------------------||--0-------------------------|--0-------------------------|

     ^
     W                            W      
  |--0-------------------------|--L------------------------||
  |--2-------------------------|--L------------------------||
  |--4-------------------------|--L------------------------||
  |--2-------------------------|--L------------------------||
  |--0-------------------------|--L------------------------||
  |----------------------------|---------------------------||
Login or Register to remove this ad.